ISO-10303-21;
HEADER;
/* Generated by software containing ST-Developer
 * from STEP Tools, Inc. (www.steptools.com) 
 */
/* OPTION: strings as raw bytes, not using required /X/ escapes */

FILE_DESCRIPTION(
/* description */ ('Unknown',
'CAx-IF Rec.Pracs.---Representation and Presentation of Product Manufa
cturing Information (PMI)---4.0---2014-10-13',
'CAx-IF Rec.Pracs.---3D Tessellated Geometry---0.4---2014-09-14','2;1'),

/* implementation_level */ '2;1');

FILE_NAME(
/* name */ '97708712-55-130',
/* time_stamp */ '2023-12-01T11:13:01+01:00',
/* author */ ('Unknown'),
/* organization */ ('Unknown'),
/* preprocessor_version */ 'ST-DEVELOPER v18.102',
/* originating_system */ 'Solid Edge',
/* authorisation */ 'Unknown');

FILE_SCHEMA (('AP242_MANAGED_MODEL_BASED_3D_ENGINEERING_MIM_LF { 1 0 10303 442 1 1 4 }'));
ENDSEC;

DATA;
#10=CONSTRUCTIVE_GEOMETRY_REPRESENTATION_RELATIONSHIP(
'supplemental geometry','',#235,#11);
#11=CONSTRUCTIVE_GEOMETRY_REPRESENTATION('supplemental geometry',(#261),
#353);
#12=SHAPE_REPRESENTATION_RELATIONSHIP('','',#235,#13);
#13=ADVANCED_BREP_SHAPE_REPRESENTATION('',(#233),#353);
#14=CONICAL_SURFACE('',#257,9.9,0.7853981633975);
#15=CONICAL_SURFACE('',#258,9.85,0.7853981633975);
#16=CONICAL_SURFACE('',#259,12.7205,0.785398163397448);
#17=CONICAL_SURFACE('',#260,13.2205,0.785398163397448);
#18=PLANE('',#240);
#19=PLANE('',#246);
#20=PLANE('',#252);
#21=PLANE('',#256);
#22=ORIENTED_EDGE('',*,*,#46,.T.);
#23=ORIENTED_EDGE('',*,*,#47,.F.);
#24=ORIENTED_EDGE('',*,*,#48,.T.);
#25=ORIENTED_EDGE('',*,*,#49,.T.);
#26=ORIENTED_EDGE('',*,*,#50,.T.);
#27=ORIENTED_EDGE('',*,*,#51,.T.);
#28=ORIENTED_EDGE('',*,*,#52,.T.);
#29=ORIENTED_EDGE('',*,*,#53,.T.);
#30=ORIENTED_EDGE('',*,*,#54,.T.);
#31=ORIENTED_EDGE('',*,*,#55,.F.);
#32=ORIENTED_EDGE('',*,*,#55,.T.);
#33=ORIENTED_EDGE('',*,*,#46,.F.);
#34=ORIENTED_EDGE('',*,*,#56,.T.);
#35=ORIENTED_EDGE('',*,*,#57,.T.);
#36=ORIENTED_EDGE('',*,*,#57,.F.);
#37=ORIENTED_EDGE('',*,*,#47,.T.);
#38=ORIENTED_EDGE('',*,*,#50,.F.);
#39=ORIENTED_EDGE('',*,*,#53,.F.);
#40=ORIENTED_EDGE('',*,*,#49,.F.);
#41=ORIENTED_EDGE('',*,*,#51,.F.);
#42=ORIENTED_EDGE('',*,*,#56,.F.);
#43=ORIENTED_EDGE('',*,*,#48,.F.);
#44=ORIENTED_EDGE('',*,*,#52,.F.);
#45=ORIENTED_EDGE('',*,*,#54,.F.);
#46=EDGE_CURVE('',#58,#58,#70,.T.);
#47=EDGE_CURVE('',#59,#59,#71,.T.);
#48=EDGE_CURVE('',#60,#60,#72,.T.);
#49=EDGE_CURVE('',#61,#61,#73,.F.);
#50=EDGE_CURVE('',#62,#62,#74,.F.);
#51=EDGE_CURVE('',#63,#63,#75,.T.);
#52=EDGE_CURVE('',#64,#64,#76,.F.);
#53=EDGE_CURVE('',#65,#65,#77,.T.);
#54=EDGE_CURVE('',#66,#66,#78,.T.);
#55=EDGE_CURVE('',#67,#67,#79,.T.);
#56=EDGE_CURVE('',#68,#68,#80,.F.);
#57=EDGE_CURVE('',#69,#69,#81,.T.);
#58=VERTEX_POINT('',#317);
#59=VERTEX_POINT('',#319);
#60=VERTEX_POINT('',#322);
#61=VERTEX_POINT('',#324);
#62=VERTEX_POINT('',#327);
#63=VERTEX_POINT('',#329);
#64=VERTEX_POINT('',#332);
#65=VERTEX_POINT('',#334);
#66=VERTEX_POINT('',#337);
#67=VERTEX_POINT('',#339);
#68=VERTEX_POINT('',#343);
#69=VERTEX_POINT('',#345);
#70=CIRCLE('',#238,13.35);
#71=CIRCLE('',#239,13.35);
#72=CIRCLE('',#241,12.7205);
#73=CIRCLE('',#242,9.9);
#74=CIRCLE('',#244,9.85);
#75=CIRCLE('',#245,9.85);
#76=CIRCLE('',#247,12.7205);
#77=CIRCLE('',#248,9.9);
#78=CIRCLE('',#250,13.2205);
#79=CIRCLE('',#251,13.2205);
#80=CIRCLE('',#254,13.2205);
#81=CIRCLE('',#255,13.2205);
#82=EDGE_LOOP('',(#22));
#83=EDGE_LOOP('',(#23));
#84=EDGE_LOOP('',(#24));
#85=EDGE_LOOP('',(#25));
#86=EDGE_LOOP('',(#26));
#87=EDGE_LOOP('',(#27));
#88=EDGE_LOOP('',(#28));
#89=EDGE_LOOP('',(#29));
#90=EDGE_LOOP('',(#30));
#91=EDGE_LOOP('',(#31));
#92=EDGE_LOOP('',(#32));
#93=EDGE_LOOP('',(#33));
#94=EDGE_LOOP('',(#34));
#95=EDGE_LOOP('',(#35));
#96=EDGE_LOOP('',(#36));
#97=EDGE_LOOP('',(#37));
#98=EDGE_LOOP('',(#38));
#99=EDGE_LOOP('',(#39));
#100=EDGE_LOOP('',(#40));
#101=EDGE_LOOP('',(#41));
#102=EDGE_LOOP('',(#42));
#103=EDGE_LOOP('',(#43));
#104=EDGE_LOOP('',(#44));
#105=EDGE_LOOP('',(#45));
#106=FACE_BOUND('',#82,.T.);
#107=FACE_BOUND('',#83,.T.);
#108=FACE_BOUND('',#84,.T.);
#109=FACE_BOUND('',#85,.T.);
#110=FACE_BOUND('',#86,.T.);
#111=FACE_BOUND('',#87,.T.);
#112=FACE_BOUND('',#88,.T.);
#113=FACE_BOUND('',#89,.T.);
#114=FACE_BOUND('',#90,.T.);
#115=FACE_BOUND('',#91,.T.);
#116=FACE_BOUND('',#92,.T.);
#117=FACE_BOUND('',#93,.T.);
#118=FACE_BOUND('',#94,.T.);
#119=FACE_BOUND('',#95,.T.);
#120=FACE_BOUND('',#96,.T.);
#121=FACE_BOUND('',#97,.T.);
#122=FACE_BOUND('',#98,.T.);
#123=FACE_BOUND('',#99,.T.);
#124=FACE_BOUND('',#100,.T.);
#125=FACE_BOUND('',#101,.T.);
#126=FACE_BOUND('',#102,.T.);
#127=FACE_BOUND('',#103,.T.);
#128=FACE_BOUND('',#104,.T.);
#129=FACE_BOUND('',#105,.T.);
#130=CYLINDRICAL_SURFACE('',#237,13.35);
#131=CYLINDRICAL_SURFACE('',#243,9.85);
#132=CYLINDRICAL_SURFACE('',#249,13.2205);
#133=CYLINDRICAL_SURFACE('',#253,13.2205);
#134=STYLED_ITEM('',(#146),#220);
#135=STYLED_ITEM('',(#147),#221);
#136=STYLED_ITEM('',(#148),#222);
#137=STYLED_ITEM('',(#149),#223);
#138=STYLED_ITEM('',(#150),#224);
#139=STYLED_ITEM('',(#151),#225);
#140=STYLED_ITEM('',(#152),#226);
#141=STYLED_ITEM('',(#153),#227);
#142=STYLED_ITEM('',(#154),#228);
#143=STYLED_ITEM('',(#155),#229);
#144=STYLED_ITEM('',(#156),#230);
#145=STYLED_ITEM('',(#157),#231);
#146=PRESENTATION_STYLE_ASSIGNMENT((#158));
#147=PRESENTATION_STYLE_ASSIGNMENT((#159));
#148=PRESENTATION_STYLE_ASSIGNMENT((#160));
#149=PRESENTATION_STYLE_ASSIGNMENT((#161));
#150=PRESENTATION_STYLE_ASSIGNMENT((#162));
#151=PRESENTATION_STYLE_ASSIGNMENT((#163));
#152=PRESENTATION_STYLE_ASSIGNMENT((#164));
#153=PRESENTATION_STYLE_ASSIGNMENT((#165));
#154=PRESENTATION_STYLE_ASSIGNMENT((#166));
#155=PRESENTATION_STYLE_ASSIGNMENT((#167));
#156=PRESENTATION_STYLE_ASSIGNMENT((#168));
#157=PRESENTATION_STYLE_ASSIGNMENT((#169));
#158=SURFACE_STYLE_USAGE(.BOTH.,#170);
#159=SURFACE_STYLE_USAGE(.BOTH.,#171);
#160=SURFACE_STYLE_USAGE(.BOTH.,#172);
#161=SURFACE_STYLE_USAGE(.BOTH.,#173);
#162=SURFACE_STYLE_USAGE(.BOTH.,#174);
#163=SURFACE_STYLE_USAGE(.BOTH.,#175);
#164=SURFACE_STYLE_USAGE(.BOTH.,#176);
#165=SURFACE_STYLE_USAGE(.BOTH.,#177);
#166=SURFACE_STYLE_USAGE(.BOTH.,#178);
#167=SURFACE_STYLE_USAGE(.BOTH.,#179);
#168=SURFACE_STYLE_USAGE(.BOTH.,#180);
#169=SURFACE_STYLE_USAGE(.BOTH.,#181);
#170=SURFACE_SIDE_STYLE('',(#182));
#171=SURFACE_SIDE_STYLE('',(#183));
#172=SURFACE_SIDE_STYLE('',(#184));
#173=SURFACE_SIDE_STYLE('',(#185));
#174=SURFACE_SIDE_STYLE('',(#186));
#175=SURFACE_SIDE_STYLE('',(#187));
#176=SURFACE_SIDE_STYLE('',(#188));
#177=SURFACE_SIDE_STYLE('',(#189));
#178=SURFACE_SIDE_STYLE('',(#190));
#179=SURFACE_SIDE_STYLE('',(#191));
#180=SURFACE_SIDE_STYLE('',(#192));
#181=SURFACE_SIDE_STYLE('',(#193));
#182=SURFACE_STYLE_FILL_AREA(#194);
#183=SURFACE_STYLE_FILL_AREA(#195);
#184=SURFACE_STYLE_FILL_AREA(#196);
#185=SURFACE_STYLE_FILL_AREA(#197);
#186=SURFACE_STYLE_FILL_AREA(#198);
#187=SURFACE_STYLE_FILL_AREA(#199);
#188=SURFACE_STYLE_FILL_AREA(#200);
#189=SURFACE_STYLE_FILL_AREA(#201);
#190=SURFACE_STYLE_FILL_AREA(#202);
#191=SURFACE_STYLE_FILL_AREA(#203);
#192=SURFACE_STYLE_FILL_AREA(#204);
#193=SURFACE_STYLE_FILL_AREA(#205);
#194=FILL_AREA_STYLE('',(#206));
#195=FILL_AREA_STYLE('',(#207));
#196=FILL_AREA_STYLE('',(#208));
#197=FILL_AREA_STYLE('',(#209));
#198=FILL_AREA_STYLE('',(#210));
#199=FILL_AREA_STYLE('',(#211));
#200=FILL_AREA_STYLE('',(#212));
#201=FILL_AREA_STYLE('',(#213));
#202=FILL_AREA_STYLE('',(#214));
#203=FILL_AREA_STYLE('',(#215));
#204=FILL_AREA_STYLE('',(#216));
#205=FILL_AREA_STYLE('',(#217));
#206=FILL_AREA_STYLE_COLOUR('',#218);
#207=FILL_AREA_STYLE_COLOUR('',#218);
#208=FILL_AREA_STYLE_COLOUR('',#218);
#209=FILL_AREA_STYLE_COLOUR('',#218);
#210=FILL_AREA_STYLE_COLOUR('',#219);
#211=FILL_AREA_STYLE_COLOUR('',#218);
#212=FILL_AREA_STYLE_COLOUR('',#219);
#213=FILL_AREA_STYLE_COLOUR('',#218);
#214=FILL_AREA_STYLE_COLOUR('',#218);
#215=FILL_AREA_STYLE_COLOUR('',#218);
#216=FILL_AREA_STYLE_COLOUR('',#218);
#217=FILL_AREA_STYLE_COLOUR('',#218);
#218=COLOUR_RGB('',0.752941191196442,0.752941191196442,0.752941191196442);
#219=COLOUR_RGB('',0.396078497171402,0.941176474094391,0.450980395078659);
#220=ADVANCED_FACE('',(#106,#107),#130,.T.);
#221=ADVANCED_FACE('',(#108,#109),#18,.T.);
#222=ADVANCED_FACE('',(#110,#111),#131,.F.);
#223=ADVANCED_FACE('',(#112,#113),#19,.F.);
#224=ADVANCED_FACE('',(#114,#115),#132,.T.);
#225=ADVANCED_FACE('',(#116,#117),#20,.F.);
#226=ADVANCED_FACE('',(#118,#119),#133,.T.);
#227=ADVANCED_FACE('',(#120,#121),#21,.T.);
#228=ADVANCED_FACE('',(#122,#123),#14,.F.);
#229=ADVANCED_FACE('',(#124,#125),#15,.F.);
#230=ADVANCED_FACE('',(#126,#127),#16,.T.);
#231=ADVANCED_FACE('',(#128,#129),#17,.T.);
#232=CLOSED_SHELL('',(#220,#221,#222,#223,#224,#225,#226,#227,#228,#229,
#230,#231));
#233=MANIFOLD_SOLID_BREP('',#232);
#234=SHAPE_DEFINITION_REPRESENTATION(#358,#235);
#235=SHAPE_REPRESENTATION('97708712-3_4x130',(#236),#353);
#236=AXIS2_PLACEMENT_3D('',#314,#262,#263);
#237=AXIS2_PLACEMENT_3D('',#315,#264,#265);
#238=AXIS2_PLACEMENT_3D('',#316,#266,#267);
#239=AXIS2_PLACEMENT_3D('',#318,#268,#269);
#240=AXIS2_PLACEMENT_3D('',#320,#270,#271);
#241=AXIS2_PLACEMENT_3D('',#321,#272,#273);
#242=AXIS2_PLACEMENT_3D('',#323,#274,#275);
#243=AXIS2_PLACEMENT_3D('',#325,#276,#277);
#244=AXIS2_PLACEMENT_3D('',#326,#278,#279);
#245=AXIS2_PLACEMENT_3D('',#328,#280,#281);
#246=AXIS2_PLACEMENT_3D('',#330,#282,#283);
#247=AXIS2_PLACEMENT_3D('',#331,#284,#285);
#248=AXIS2_PLACEMENT_3D('',#333,#286,#287);
#249=AXIS2_PLACEMENT_3D('',#335,#288,#289);
#250=AXIS2_PLACEMENT_3D('',#336,#290,#291);
#251=AXIS2_PLACEMENT_3D('',#338,#292,#293);
#252=AXIS2_PLACEMENT_3D('',#340,#294,#295);
#253=AXIS2_PLACEMENT_3D('',#341,#296,#297);
#254=AXIS2_PLACEMENT_3D('',#342,#298,#299);
#255=AXIS2_PLACEMENT_3D('',#344,#300,#301);
#256=AXIS2_PLACEMENT_3D('',#346,#302,#303);
#257=AXIS2_PLACEMENT_3D('',#347,#304,#305);
#258=AXIS2_PLACEMENT_3D('',#348,#306,#307);
#259=AXIS2_PLACEMENT_3D('',#349,#308,#309);
#260=AXIS2_PLACEMENT_3D('',#350,#310,#311);
#261=AXIS2_PLACEMENT_3D('Basis',#351,#312,#313);
#262=DIRECTION('',(0.,0.,1.));
#263=DIRECTION('',(1.,0.,0.));
#264=DIRECTION('',(0.,1.,0.));
#265=DIRECTION('',(0.,0.,1.));
#266=DIRECTION('',(0.,1.,0.));
#267=DIRECTION('',(1.,0.,0.));
#268=DIRECTION('',(0.,1.,0.));
#269=DIRECTION('',(0.,0.,-1.));
#270=DIRECTION('',(0.,1.,0.));
#271=DIRECTION('',(0.,0.,1.));
#272=DIRECTION('',(0.,1.,0.));
#273=DIRECTION('',(0.,0.,1.));
#274=DIRECTION('',(0.,1.,0.));
#275=DIRECTION('',(0.,0.,1.));
#276=DIRECTION('',(0.,1.,0.));
#277=DIRECTION('',(0.,0.,1.));
#278=DIRECTION('',(0.,1.,0.));
#279=DIRECTION('',(0.,0.,1.));
#280=DIRECTION('',(0.,1.,0.));
#281=DIRECTION('',(0.,0.,1.));
#282=DIRECTION('',(0.,1.,0.));
#283=DIRECTION('',(0.,0.,1.));
#284=DIRECTION('',(0.,1.,0.));
#285=DIRECTION('',(0.,0.,1.));
#286=DIRECTION('',(0.,1.,0.));
#287=DIRECTION('',(0.,0.,1.));
#288=DIRECTION('',(0.,-1.,0.));
#289=DIRECTION('',(0.,0.,-1.));
#290=DIRECTION('',(0.,1.,0.));
#291=DIRECTION('',(0.,0.,1.));
#292=DIRECTION('',(0.,1.,0.));
#293=DIRECTION('',(1.,0.,0.));
#294=DIRECTION('',(0.,1.,0.));
#295=DIRECTION('',(0.,0.,1.));
#296=DIRECTION('',(0.,1.,0.));
#297=DIRECTION('',(0.,0.,1.));
#298=DIRECTION('',(0.,1.,0.));
#299=DIRECTION('',(0.,0.,1.));
#300=DIRECTION('',(0.,1.,0.));
#301=DIRECTION('',(0.,0.,-1.));
#302=DIRECTION('',(0.,1.,0.));
#303=DIRECTION('',(0.,0.,1.));
#304=DIRECTION('',(0.,-1.,0.));
#305=DIRECTION('',(0.,0.,-1.));
#306=DIRECTION('',(0.,1.,0.));
#307=DIRECTION('',(0.,0.,1.));
#308=DIRECTION('',(0.,-1.,0.));
#309=DIRECTION('',(0.,0.,-1.));
#310=DIRECTION('',(0.,1.,0.));
#311=DIRECTION('',(0.,0.,1.));
#312=DIRECTION('',(0.,0.,1.));
#313=DIRECTION('',(1.,0.,0.));
#314=CARTESIAN_POINT('',(0.,0.,0.));
#315=CARTESIAN_POINT('',(0.,-65.,0.));
#316=CARTESIAN_POINT('',(0.,-48.,0.));
#317=CARTESIAN_POINT('',(13.35,-48.,0.));
#318=CARTESIAN_POINT('',(0.,48.,0.));
#319=CARTESIAN_POINT('',(0.,48.,-13.35));
#320=CARTESIAN_POINT('',(0.,65.,0.));
#321=CARTESIAN_POINT('',(0.,65.,0.));
#322=CARTESIAN_POINT('',(0.,65.,12.7205));
#323=CARTESIAN_POINT('',(0.,65.,0.));
#324=CARTESIAN_POINT('',(0.,65.,9.9));
#325=CARTESIAN_POINT('',(0.,-65.,0.));
#326=CARTESIAN_POINT('',(0.,-64.95,0.));
#327=CARTESIAN_POINT('',(0.,-64.95,9.85));
#328=CARTESIAN_POINT('',(0.,64.95,0.));
#329=CARTESIAN_POINT('',(0.,64.95,9.85));
#330=CARTESIAN_POINT('',(0.,-65.,0.));
#331=CARTESIAN_POINT('',(0.,-65.,0.));
#332=CARTESIAN_POINT('',(0.,-65.,12.7205));
#333=CARTESIAN_POINT('',(0.,-65.,0.));
#334=CARTESIAN_POINT('',(0.,-65.,9.9));
#335=CARTESIAN_POINT('',(0.,-48.,0.));
#336=CARTESIAN_POINT('',(0.,-64.5,0.));
#337=CARTESIAN_POINT('',(0.,-64.5,13.2205));
#338=CARTESIAN_POINT('',(0.,-48.,0.));
#339=CARTESIAN_POINT('',(13.2205,-48.,0.));
#340=CARTESIAN_POINT('',(0.,-48.,0.));
#341=CARTESIAN_POINT('',(0.,48.,0.));
#342=CARTESIAN_POINT('',(0.,64.5,0.));
#343=CARTESIAN_POINT('',(0.,64.5,13.2205));
#344=CARTESIAN_POINT('',(0.,48.,0.));
#345=CARTESIAN_POINT('',(0.,48.,-13.2205));
#346=CARTESIAN_POINT('',(0.,48.,0.));
#347=CARTESIAN_POINT('',(0.,-65.,0.));
#348=CARTESIAN_POINT('',(0.,64.95,0.));
#349=CARTESIAN_POINT('',(0.,65.,0.));
#350=CARTESIAN_POINT('',(0.,-64.5,0.));
#351=CARTESIAN_POINT('',(0.,0.,0.));
#352=MECHANICAL_DESIGN_GEOMETRIC_PRESENTATION_REPRESENTATION('',(#134,#135,
#136,#137,#138,#139,#140,#141,#142,#143,#144,#145),#353);
#353=(
GEOMETRIC_REPRESENTATION_CONTEXT(3)
GLOBAL_UNCERTAINTY_ASSIGNED_CONTEXT((#354))
GLOBAL_UNIT_ASSIGNED_CONTEXT((#357,#356,#355))
REPRESENTATION_CONTEXT('97708712-3_4x130','TOP_LEVEL_ASSEMBLY_PART')
);
#354=UNCERTAINTY_MEASURE_WITH_UNIT(LENGTH_MEASURE(0.005),#357,
'DISTANCE_ACCURACY_VALUE','Maximum Tolerance applied to model');
#355=(
NAMED_UNIT(*)
SI_UNIT($,.STERADIAN.)
SOLID_ANGLE_UNIT()
);
#356=(
NAMED_UNIT(*)
PLANE_ANGLE_UNIT()
SI_UNIT($,.RADIAN.)
);
#357=(
LENGTH_UNIT()
NAMED_UNIT(*)
SI_UNIT(.MILLI.,.METRE.)
);
#358=PRODUCT_DEFINITION_SHAPE('','',#359);
#359=PRODUCT_DEFINITION('','',#361,#360);
#360=PRODUCT_DEFINITION_CONTEXT('',#367,'design');
#361=PRODUCT_DEFINITION_FORMATION_WITH_SPECIFIED_SOURCE('','',#363,
 .NOT_KNOWN.);
#362=PRODUCT_RELATED_PRODUCT_CATEGORY('','',(#363));
#363=PRODUCT('97708712-3_4x130','97708712-3_4x130','97708712-3_4x130',(#365));
#364=PRODUCT_CATEGORY('','');
#365=PRODUCT_CONTEXT('',#367,'mechanical');
#366=APPLICATION_PROTOCOL_DEFINITION('international standard',
'ap242_managed_model_based_3d_engineering',2011,#367);
#367=APPLICATION_CONTEXT('managed model based 3d engineering');
ENDSEC;
END-ISO-10303-21;
