ISO-10303-21;
HEADER;
/* Generated by software containing ST-Developer
 * from STEP Tools, Inc. (www.steptools.com) 
 */
/* OPTION: strings as raw bytes, not using required /X/ escapes */

FILE_DESCRIPTION(
/* description */ ('Unknown'),
/* implementation_level */ '2;1');

FILE_NAME(
/* name */ '98708712-66-130N',
/* time_stamp */ '2023-05-05T08:10:44+02:00',
/* author */ ('Unknown'),
/* organization */ ('Unknown'),
/* preprocessor_version */ 'ST-DEVELOPER v18.102',
/* originating_system */ 'Solid Edge',
/* authorisation */ 'Unknown');

FILE_SCHEMA (('AUTOMOTIVE_DESIGN {1 0 10303 214 3 1 1}'));
ENDSEC;

DATA;
#10=PROPERTY_DEFINITION_REPRESENTATION(#14,#12);
#11=PROPERTY_DEFINITION_REPRESENTATION(#15,#13);
#12=REPRESENTATION('',(#16),#612);
#13=REPRESENTATION('',(#17),#612);
#14=PROPERTY_DEFINITION('pmi validation property','',#617);
#15=PROPERTY_DEFINITION('pmi validation property','',#617);
#16=VALUE_REPRESENTATION_ITEM('number of annotations',COUNT_MEASURE(0.));
#17=VALUE_REPRESENTATION_ITEM('number of views',COUNT_MEASURE(0.));
#18=SHAPE_REPRESENTATION_RELATIONSHIP('','',#422,#19);
#19=ADVANCED_BREP_SHAPE_REPRESENTATION('',(#420),#612);
#20=LINE('',#574,#38);
#21=LINE('',#577,#39);
#22=LINE('',#579,#40);
#23=LINE('',#581,#41);
#24=LINE('',#583,#42);
#25=LINE('',#585,#43);
#26=LINE('',#587,#44);
#27=LINE('',#589,#45);
#28=LINE('',#591,#46);
#29=LINE('',#593,#47);
#30=LINE('',#595,#48);
#31=LINE('',#597,#49);
#32=LINE('',#599,#50);
#33=LINE('',#601,#51);
#34=LINE('',#603,#52);
#35=LINE('',#605,#53);
#36=LINE('',#607,#54);
#37=LINE('',#608,#55);
#38=VECTOR('',#505,1000.);
#39=VECTOR('',#506,1000.);
#40=VECTOR('',#507,1000.);
#41=VECTOR('',#508,1000.);
#42=VECTOR('',#511,1000.);
#43=VECTOR('',#512,1000.);
#44=VECTOR('',#513,1000.);
#45=VECTOR('',#516,1000.);
#46=VECTOR('',#517,1000.);
#47=VECTOR('',#518,1000.);
#48=VECTOR('',#521,1000.);
#49=VECTOR('',#522,1000.);
#50=VECTOR('',#523,1000.);
#51=VECTOR('',#526,1000.);
#52=VECTOR('',#527,1000.);
#53=VECTOR('',#528,1000.);
#54=VECTOR('',#531,1000.);
#55=VECTOR('',#532,1000.);
#56=CONICAL_SURFACE('',#445,16.1245,0.785398163397448);
#57=CONICAL_SURFACE('',#446,16.6245,0.785398163397448);
#58=PLANE('',#430);
#59=PLANE('',#435);
#60=PLANE('',#440);
#61=PLANE('',#444);
#62=PLANE('',#447);
#63=PLANE('',#448);
#64=PLANE('',#449);
#65=PLANE('',#450);
#66=PLANE('',#451);
#67=PLANE('',#452);
#68=PLANE('',#453);
#69=PLANE('',#454);
#70=ORIENTED_EDGE('',*,*,#130,.F.);
#71=ORIENTED_EDGE('',*,*,#131,.T.);
#72=ORIENTED_EDGE('',*,*,#132,.F.);
#73=ORIENTED_EDGE('',*,*,#133,.T.);
#74=ORIENTED_EDGE('',*,*,#134,.T.);
#75=ORIENTED_EDGE('',*,*,#135,.F.);
#76=ORIENTED_EDGE('',*,*,#136,.F.);
#77=ORIENTED_EDGE('',*,*,#135,.T.);
#78=ORIENTED_EDGE('',*,*,#137,.T.);
#79=ORIENTED_EDGE('',*,*,#136,.T.);
#80=ORIENTED_EDGE('',*,*,#138,.T.);
#81=ORIENTED_EDGE('',*,*,#139,.F.);
#82=ORIENTED_EDGE('',*,*,#139,.T.);
#83=ORIENTED_EDGE('',*,*,#133,.F.);
#84=ORIENTED_EDGE('',*,*,#140,.T.);
#85=ORIENTED_EDGE('',*,*,#141,.T.);
#86=ORIENTED_EDGE('',*,*,#141,.F.);
#87=ORIENTED_EDGE('',*,*,#130,.T.);
#88=ORIENTED_EDGE('',*,*,#140,.F.);
#89=ORIENTED_EDGE('',*,*,#134,.F.);
#90=ORIENTED_EDGE('',*,*,#137,.F.);
#91=ORIENTED_EDGE('',*,*,#138,.F.);
#92=ORIENTED_EDGE('',*,*,#142,.T.);
#93=ORIENTED_EDGE('',*,*,#143,.F.);
#94=ORIENTED_EDGE('',*,*,#144,.F.);
#95=ORIENTED_EDGE('',*,*,#145,.T.);
#96=ORIENTED_EDGE('',*,*,#146,.T.);
#97=ORIENTED_EDGE('',*,*,#147,.F.);
#98=ORIENTED_EDGE('',*,*,#148,.F.);
#99=ORIENTED_EDGE('',*,*,#143,.T.);
#100=ORIENTED_EDGE('',*,*,#149,.T.);
#101=ORIENTED_EDGE('',*,*,#150,.F.);
#102=ORIENTED_EDGE('',*,*,#151,.F.);
#103=ORIENTED_EDGE('',*,*,#147,.T.);
#104=ORIENTED_EDGE('',*,*,#152,.T.);
#105=ORIENTED_EDGE('',*,*,#153,.F.);
#106=ORIENTED_EDGE('',*,*,#154,.F.);
#107=ORIENTED_EDGE('',*,*,#150,.T.);
#108=ORIENTED_EDGE('',*,*,#155,.T.);
#109=ORIENTED_EDGE('',*,*,#156,.F.);
#110=ORIENTED_EDGE('',*,*,#157,.F.);
#111=ORIENTED_EDGE('',*,*,#153,.T.);
#112=ORIENTED_EDGE('',*,*,#158,.T.);
#113=ORIENTED_EDGE('',*,*,#145,.F.);
#114=ORIENTED_EDGE('',*,*,#159,.F.);
#115=ORIENTED_EDGE('',*,*,#156,.T.);
#116=ORIENTED_EDGE('',*,*,#132,.T.);
#117=ORIENTED_EDGE('',*,*,#144,.T.);
#118=ORIENTED_EDGE('',*,*,#148,.T.);
#119=ORIENTED_EDGE('',*,*,#151,.T.);
#120=ORIENTED_EDGE('',*,*,#154,.T.);
#121=ORIENTED_EDGE('',*,*,#157,.T.);
#122=ORIENTED_EDGE('',*,*,#159,.T.);
#123=ORIENTED_EDGE('',*,*,#131,.F.);
#124=ORIENTED_EDGE('',*,*,#142,.F.);
#125=ORIENTED_EDGE('',*,*,#158,.F.);
#126=ORIENTED_EDGE('',*,*,#155,.F.);
#127=ORIENTED_EDGE('',*,*,#152,.F.);
#128=ORIENTED_EDGE('',*,*,#149,.F.);
#129=ORIENTED_EDGE('',*,*,#146,.F.);
#130=EDGE_CURVE('',#160,#160,#184,.T.);
#131=EDGE_CURVE('',#161,#161,#185,.F.);
#132=EDGE_CURVE('',#162,#162,#186,.F.);
#133=EDGE_CURVE('',#163,#163,#187,.T.);
#134=EDGE_CURVE('',#164,#164,#188,.T.);
#135=EDGE_CURVE('',#165,#165,#189,.T.);
#136=EDGE_CURVE('',#166,#166,#190,.T.);
#137=EDGE_CURVE('',#167,#167,#191,.F.);
#138=EDGE_CURVE('',#168,#168,#192,.T.);
#139=EDGE_CURVE('',#169,#169,#193,.T.);
#140=EDGE_CURVE('',#170,#170,#194,.F.);
#141=EDGE_CURVE('',#171,#171,#195,.T.);
#142=EDGE_CURVE('',#172,#173,#20,.T.);
#143=EDGE_CURVE('',#174,#173,#21,.T.);
#144=EDGE_CURVE('',#175,#174,#22,.T.);
#145=EDGE_CURVE('',#175,#172,#23,.T.);
#146=EDGE_CURVE('',#173,#176,#24,.T.);
#147=EDGE_CURVE('',#177,#176,#25,.T.);
#148=EDGE_CURVE('',#174,#177,#26,.T.);
#149=EDGE_CURVE('',#176,#178,#27,.T.);
#150=EDGE_CURVE('',#179,#178,#28,.T.);
#151=EDGE_CURVE('',#177,#179,#29,.T.);
#152=EDGE_CURVE('',#178,#180,#30,.T.);
#153=EDGE_CURVE('',#181,#180,#31,.T.);
#154=EDGE_CURVE('',#179,#181,#32,.T.);
#155=EDGE_CURVE('',#180,#182,#33,.T.);
#156=EDGE_CURVE('',#183,#182,#34,.T.);
#157=EDGE_CURVE('',#181,#183,#35,.T.);
#158=EDGE_CURVE('',#182,#172,#36,.T.);
#159=EDGE_CURVE('',#183,#175,#37,.T.);
#160=VERTEX_POINT('',#540);
#161=VERTEX_POINT('',#542);
#162=VERTEX_POINT('',#545);
#163=VERTEX_POINT('',#547);
#164=VERTEX_POINT('',#550);
#165=VERTEX_POINT('',#552);
#166=VERTEX_POINT('',#555);
#167=VERTEX_POINT('',#558);
#168=VERTEX_POINT('',#561);
#169=VERTEX_POINT('',#563);
#170=VERTEX_POINT('',#567);
#171=VERTEX_POINT('',#569);
#172=VERTEX_POINT('',#575);
#173=VERTEX_POINT('',#576);
#174=VERTEX_POINT('',#578);
#175=VERTEX_POINT('',#580);
#176=VERTEX_POINT('',#584);
#177=VERTEX_POINT('',#586);
#178=VERTEX_POINT('',#590);
#179=VERTEX_POINT('',#592);
#180=VERTEX_POINT('',#596);
#181=VERTEX_POINT('',#598);
#182=VERTEX_POINT('',#602);
#183=VERTEX_POINT('',#604);
#184=CIRCLE('',#425,16.7);
#185=CIRCLE('',#426,16.7);
#186=CIRCLE('',#428,16.7);
#187=CIRCLE('',#429,16.7);
#188=CIRCLE('',#431,16.1245);
#189=CIRCLE('',#432,12.5);
#190=CIRCLE('',#434,12.5);
#191=CIRCLE('',#436,16.1245);
#192=CIRCLE('',#438,16.6245);
#193=CIRCLE('',#439,16.6245);
#194=CIRCLE('',#442,16.6245);
#195=CIRCLE('',#443,16.6245);
#196=EDGE_LOOP('',(#70));
#197=EDGE_LOOP('',(#71));
#198=EDGE_LOOP('',(#72));
#199=EDGE_LOOP('',(#73));
#200=EDGE_LOOP('',(#74));
#201=EDGE_LOOP('',(#75));
#202=EDGE_LOOP('',(#76));
#203=EDGE_LOOP('',(#77));
#204=EDGE_LOOP('',(#78));
#205=EDGE_LOOP('',(#79));
#206=EDGE_LOOP('',(#80));
#207=EDGE_LOOP('',(#81));
#208=EDGE_LOOP('',(#82));
#209=EDGE_LOOP('',(#83));
#210=EDGE_LOOP('',(#84));
#211=EDGE_LOOP('',(#85));
#212=EDGE_LOOP('',(#86));
#213=EDGE_LOOP('',(#87));
#214=EDGE_LOOP('',(#88));
#215=EDGE_LOOP('',(#89));
#216=EDGE_LOOP('',(#90));
#217=EDGE_LOOP('',(#91));
#218=EDGE_LOOP('',(#92,#93,#94,#95));
#219=EDGE_LOOP('',(#96,#97,#98,#99));
#220=EDGE_LOOP('',(#100,#101,#102,#103));
#221=EDGE_LOOP('',(#104,#105,#106,#107));
#222=EDGE_LOOP('',(#108,#109,#110,#111));
#223=EDGE_LOOP('',(#112,#113,#114,#115));
#224=EDGE_LOOP('',(#116));
#225=EDGE_LOOP('',(#117,#118,#119,#120,#121,#122));
#226=EDGE_LOOP('',(#123));
#227=EDGE_LOOP('',(#124,#125,#126,#127,#128,#129));
#228=FACE_BOUND('',#196,.T.);
#229=FACE_BOUND('',#197,.T.);
#230=FACE_BOUND('',#198,.T.);
#231=FACE_BOUND('',#199,.T.);
#232=FACE_BOUND('',#200,.T.);
#233=FACE_BOUND('',#201,.T.);
#234=FACE_BOUND('',#202,.T.);
#235=FACE_BOUND('',#203,.T.);
#236=FACE_BOUND('',#204,.T.);
#237=FACE_BOUND('',#205,.T.);
#238=FACE_BOUND('',#206,.T.);
#239=FACE_BOUND('',#207,.T.);
#240=FACE_BOUND('',#208,.T.);
#241=FACE_BOUND('',#209,.T.);
#242=FACE_BOUND('',#210,.T.);
#243=FACE_BOUND('',#211,.T.);
#244=FACE_BOUND('',#212,.T.);
#245=FACE_BOUND('',#213,.T.);
#246=FACE_BOUND('',#214,.T.);
#247=FACE_BOUND('',#215,.T.);
#248=FACE_BOUND('',#216,.T.);
#249=FACE_BOUND('',#217,.T.);
#250=FACE_BOUND('',#218,.T.);
#251=FACE_BOUND('',#219,.T.);
#252=FACE_BOUND('',#220,.T.);
#253=FACE_BOUND('',#221,.T.);
#254=FACE_BOUND('',#222,.T.);
#255=FACE_BOUND('',#223,.T.);
#256=FACE_BOUND('',#224,.T.);
#257=FACE_BOUND('',#225,.T.);
#258=FACE_BOUND('',#226,.T.);
#259=FACE_BOUND('',#227,.T.);
#260=CYLINDRICAL_SURFACE('',#424,16.7);
#261=CYLINDRICAL_SURFACE('',#427,16.7);
#262=CYLINDRICAL_SURFACE('',#433,12.5);
#263=CYLINDRICAL_SURFACE('',#437,16.6245);
#264=CYLINDRICAL_SURFACE('',#441,16.6245);
#265=STYLED_ITEM('',(#284),#400);
#266=STYLED_ITEM('',(#285),#401);
#267=STYLED_ITEM('',(#286),#402);
#268=STYLED_ITEM('',(#287),#403);
#269=STYLED_ITEM('',(#288),#404);
#270=STYLED_ITEM('',(#289),#405);
#271=STYLED_ITEM('',(#290),#406);
#272=STYLED_ITEM('',(#291),#407);
#273=STYLED_ITEM('',(#292),#408);
#274=STYLED_ITEM('',(#293),#409);
#275=STYLED_ITEM('',(#294),#410);
#276=STYLED_ITEM('',(#295),#411);
#277=STYLED_ITEM('',(#296),#412);
#278=STYLED_ITEM('',(#297),#413);
#279=STYLED_ITEM('',(#298),#414);
#280=STYLED_ITEM('',(#299),#415);
#281=STYLED_ITEM('',(#300),#416);
#282=STYLED_ITEM('',(#301),#417);
#283=STYLED_ITEM('',(#302),#418);
#284=PRESENTATION_STYLE_ASSIGNMENT((#303));
#285=PRESENTATION_STYLE_ASSIGNMENT((#304));
#286=PRESENTATION_STYLE_ASSIGNMENT((#305));
#287=PRESENTATION_STYLE_ASSIGNMENT((#306));
#288=PRESENTATION_STYLE_ASSIGNMENT((#307));
#289=PRESENTATION_STYLE_ASSIGNMENT((#308));
#290=PRESENTATION_STYLE_ASSIGNMENT((#309));
#291=PRESENTATION_STYLE_ASSIGNMENT((#310));
#292=PRESENTATION_STYLE_ASSIGNMENT((#311));
#293=PRESENTATION_STYLE_ASSIGNMENT((#312));
#294=PRESENTATION_STYLE_ASSIGNMENT((#313));
#295=PRESENTATION_STYLE_ASSIGNMENT((#314));
#296=PRESENTATION_STYLE_ASSIGNMENT((#315));
#297=PRESENTATION_STYLE_ASSIGNMENT((#316));
#298=PRESENTATION_STYLE_ASSIGNMENT((#317));
#299=PRESENTATION_STYLE_ASSIGNMENT((#318));
#300=PRESENTATION_STYLE_ASSIGNMENT((#319));
#301=PRESENTATION_STYLE_ASSIGNMENT((#320));
#302=PRESENTATION_STYLE_ASSIGNMENT((#321));
#303=SURFACE_STYLE_USAGE(.BOTH.,#322);
#304=SURFACE_STYLE_USAGE(.BOTH.,#323);
#305=SURFACE_STYLE_USAGE(.BOTH.,#324);
#306=SURFACE_STYLE_USAGE(.BOTH.,#325);
#307=SURFACE_STYLE_USAGE(.BOTH.,#326);
#308=SURFACE_STYLE_USAGE(.BOTH.,#327);
#309=SURFACE_STYLE_USAGE(.BOTH.,#328);
#310=SURFACE_STYLE_USAGE(.BOTH.,#329);
#311=SURFACE_STYLE_USAGE(.BOTH.,#330);
#312=SURFACE_STYLE_USAGE(.BOTH.,#331);
#313=SURFACE_STYLE_USAGE(.BOTH.,#332);
#314=SURFACE_STYLE_USAGE(.BOTH.,#333);
#315=SURFACE_STYLE_USAGE(.BOTH.,#334);
#316=SURFACE_STYLE_USAGE(.BOTH.,#335);
#317=SURFACE_STYLE_USAGE(.BOTH.,#336);
#318=SURFACE_STYLE_USAGE(.BOTH.,#337);
#319=SURFACE_STYLE_USAGE(.BOTH.,#338);
#320=SURFACE_STYLE_USAGE(.BOTH.,#339);
#321=SURFACE_STYLE_USAGE(.BOTH.,#340);
#322=SURFACE_SIDE_STYLE('',(#341));
#323=SURFACE_SIDE_STYLE('',(#342));
#324=SURFACE_SIDE_STYLE('',(#343));
#325=SURFACE_SIDE_STYLE('',(#344));
#326=SURFACE_SIDE_STYLE('',(#345));
#327=SURFACE_SIDE_STYLE('',(#346));
#328=SURFACE_SIDE_STYLE('',(#347));
#329=SURFACE_SIDE_STYLE('',(#348));
#330=SURFACE_SIDE_STYLE('',(#349));
#331=SURFACE_SIDE_STYLE('',(#350));
#332=SURFACE_SIDE_STYLE('',(#351));
#333=SURFACE_SIDE_STYLE('',(#352));
#334=SURFACE_SIDE_STYLE('',(#353));
#335=SURFACE_SIDE_STYLE('',(#354));
#336=SURFACE_SIDE_STYLE('',(#355));
#337=SURFACE_SIDE_STYLE('',(#356));
#338=SURFACE_SIDE_STYLE('',(#357));
#339=SURFACE_SIDE_STYLE('',(#358));
#340=SURFACE_SIDE_STYLE('',(#359));
#341=SURFACE_STYLE_FILL_AREA(#360);
#342=SURFACE_STYLE_FILL_AREA(#361);
#343=SURFACE_STYLE_FILL_AREA(#362);
#344=SURFACE_STYLE_FILL_AREA(#363);
#345=SURFACE_STYLE_FILL_AREA(#364);
#346=SURFACE_STYLE_FILL_AREA(#365);
#347=SURFACE_STYLE_FILL_AREA(#366);
#348=SURFACE_STYLE_FILL_AREA(#367);
#349=SURFACE_STYLE_FILL_AREA(#368);
#350=SURFACE_STYLE_FILL_AREA(#369);
#351=SURFACE_STYLE_FILL_AREA(#370);
#352=SURFACE_STYLE_FILL_AREA(#371);
#353=SURFACE_STYLE_FILL_AREA(#372);
#354=SURFACE_STYLE_FILL_AREA(#373);
#355=SURFACE_STYLE_FILL_AREA(#374);
#356=SURFACE_STYLE_FILL_AREA(#375);
#357=SURFACE_STYLE_FILL_AREA(#376);
#358=SURFACE_STYLE_FILL_AREA(#377);
#359=SURFACE_STYLE_FILL_AREA(#378);
#360=FILL_AREA_STYLE('',(#379));
#361=FILL_AREA_STYLE('',(#380));
#362=FILL_AREA_STYLE('',(#381));
#363=FILL_AREA_STYLE('',(#382));
#364=FILL_AREA_STYLE('',(#383));
#365=FILL_AREA_STYLE('',(#384));
#366=FILL_AREA_STYLE('',(#385));
#367=FILL_AREA_STYLE('',(#386));
#368=FILL_AREA_STYLE('',(#387));
#369=FILL_AREA_STYLE('',(#388));
#370=FILL_AREA_STYLE('',(#389));
#371=FILL_AREA_STYLE('',(#390));
#372=FILL_AREA_STYLE('',(#391));
#373=FILL_AREA_STYLE('',(#392));
#374=FILL_AREA_STYLE('',(#393));
#375=FILL_AREA_STYLE('',(#394));
#376=FILL_AREA_STYLE('',(#395));
#377=FILL_AREA_STYLE('',(#396));
#378=FILL_AREA_STYLE('',(#397));
#379=FILL_AREA_STYLE_COLOUR('',#398);
#380=FILL_AREA_STYLE_COLOUR('',#398);
#381=FILL_AREA_STYLE_COLOUR('',#398);
#382=FILL_AREA_STYLE_COLOUR('',#398);
#383=FILL_AREA_STYLE_COLOUR('',#398);
#384=FILL_AREA_STYLE_COLOUR('',#399);
#385=FILL_AREA_STYLE_COLOUR('',#398);
#386=FILL_AREA_STYLE_COLOUR('',#399);
#387=FILL_AREA_STYLE_COLOUR('',#398);
#388=FILL_AREA_STYLE_COLOUR('',#398);
#389=FILL_AREA_STYLE_COLOUR('',#398);
#390=FILL_AREA_STYLE_COLOUR('',#398);
#391=FILL_AREA_STYLE_COLOUR('',#398);
#392=FILL_AREA_STYLE_COLOUR('',#398);
#393=FILL_AREA_STYLE_COLOUR('',#398);
#394=FILL_AREA_STYLE_COLOUR('',#398);
#395=FILL_AREA_STYLE_COLOUR('',#398);
#396=FILL_AREA_STYLE_COLOUR('',#398);
#397=FILL_AREA_STYLE_COLOUR('',#398);
#398=COLOUR_RGB('',0.752941191196442,0.752941191196442,0.752941191196442);
#399=COLOUR_RGB('',0.396078497171402,0.941176474094391,0.450980395078659);
#400=ADVANCED_FACE('',(#228,#229),#260,.T.);
#401=ADVANCED_FACE('',(#230,#231),#261,.T.);
#402=ADVANCED_FACE('',(#232,#233),#58,.T.);
#403=ADVANCED_FACE('',(#234,#235),#262,.F.);
#404=ADVANCED_FACE('',(#236,#237),#59,.F.);
#405=ADVANCED_FACE('',(#238,#239),#263,.T.);
#406=ADVANCED_FACE('',(#240,#241),#60,.F.);
#407=ADVANCED_FACE('',(#242,#243),#264,.T.);
#408=ADVANCED_FACE('',(#244,#245),#61,.T.);
#409=ADVANCED_FACE('',(#246,#247),#56,.T.);
#410=ADVANCED_FACE('',(#248,#249),#57,.T.);
#411=ADVANCED_FACE('',(#250),#62,.F.);
#412=ADVANCED_FACE('',(#251),#63,.F.);
#413=ADVANCED_FACE('',(#252),#64,.F.);
#414=ADVANCED_FACE('',(#253),#65,.F.);
#415=ADVANCED_FACE('',(#254),#66,.F.);
#416=ADVANCED_FACE('',(#255),#67,.F.);
#417=ADVANCED_FACE('',(#256,#257),#68,.T.);
#418=ADVANCED_FACE('',(#258,#259),#69,.F.);
#419=CLOSED_SHELL('',(#400,#401,#402,#403,#404,#405,#406,#407,#408,#409,
#410,#411,#412,#413,#414,#415,#416,#417,#418));
#420=MANIFOLD_SOLID_BREP('',#419);
#421=SHAPE_DEFINITION_REPRESENTATION(#617,#422);
#422=SHAPE_REPRESENTATION('Rohrnippel K.1x130',(#423),#612);
#423=AXIS2_PLACEMENT_3D('',#537,#455,#456);
#424=AXIS2_PLACEMENT_3D('',#538,#457,#458);
#425=AXIS2_PLACEMENT_3D('',#539,#459,#460);
#426=AXIS2_PLACEMENT_3D('',#541,#461,#462);
#427=AXIS2_PLACEMENT_3D('',#543,#463,#464);
#428=AXIS2_PLACEMENT_3D('',#544,#465,#466);
#429=AXIS2_PLACEMENT_3D('',#546,#467,#468);
#430=AXIS2_PLACEMENT_3D('',#548,#469,#470);
#431=AXIS2_PLACEMENT_3D('',#549,#471,#472);
#432=AXIS2_PLACEMENT_3D('',#551,#473,#474);
#433=AXIS2_PLACEMENT_3D('',#553,#475,#476);
#434=AXIS2_PLACEMENT_3D('',#554,#477,#478);
#435=AXIS2_PLACEMENT_3D('',#556,#479,#480);
#436=AXIS2_PLACEMENT_3D('',#557,#481,#482);
#437=AXIS2_PLACEMENT_3D('',#559,#483,#484);
#438=AXIS2_PLACEMENT_3D('',#560,#485,#486);
#439=AXIS2_PLACEMENT_3D('',#562,#487,#488);
#440=AXIS2_PLACEMENT_3D('',#564,#489,#490);
#441=AXIS2_PLACEMENT_3D('',#565,#491,#492);
#442=AXIS2_PLACEMENT_3D('',#566,#493,#494);
#443=AXIS2_PLACEMENT_3D('',#568,#495,#496);
#444=AXIS2_PLACEMENT_3D('',#570,#497,#498);
#445=AXIS2_PLACEMENT_3D('',#571,#499,#500);
#446=AXIS2_PLACEMENT_3D('',#572,#501,#502);
#447=AXIS2_PLACEMENT_3D('',#573,#503,#504);
#448=AXIS2_PLACEMENT_3D('',#582,#509,#510);
#449=AXIS2_PLACEMENT_3D('',#588,#514,#515);
#450=AXIS2_PLACEMENT_3D('',#594,#519,#520);
#451=AXIS2_PLACEMENT_3D('',#600,#524,#525);
#452=AXIS2_PLACEMENT_3D('',#606,#529,#530);
#453=AXIS2_PLACEMENT_3D('',#609,#533,#534);
#454=AXIS2_PLACEMENT_3D('',#610,#535,#536);
#455=DIRECTION('',(0.,0.,1.));
#456=DIRECTION('',(1.,0.,0.));
#457=DIRECTION('',(0.,1.,0.));
#458=DIRECTION('',(0.,0.,1.));
#459=DIRECTION('',(0.,1.,0.));
#460=DIRECTION('',(0.,0.,-1.));
#461=DIRECTION('',(0.,-1.,0.));
#462=DIRECTION('',(0.,0.,-1.));
#463=DIRECTION('',(0.,1.,0.));
#464=DIRECTION('',(0.,0.,1.));
#465=DIRECTION('',(0.,-1.,0.));
#466=DIRECTION('',(0.,0.,-1.));
#467=DIRECTION('',(0.,1.,0.));
#468=DIRECTION('',(1.,0.,0.));
#469=DIRECTION('',(0.,1.,0.));
#470=DIRECTION('',(0.,0.,1.));
#471=DIRECTION('',(0.,1.,0.));
#472=DIRECTION('',(0.,0.,1.));
#473=DIRECTION('',(0.,1.,0.));
#474=DIRECTION('',(1.,0.,0.));
#475=DIRECTION('',(0.,1.,0.));
#476=DIRECTION('',(0.,0.,1.));
#477=DIRECTION('',(0.,1.,0.));
#478=DIRECTION('',(1.,0.,0.));
#479=DIRECTION('',(0.,1.,0.));
#480=DIRECTION('',(0.,0.,1.));
#481=DIRECTION('',(0.,1.,0.));
#482=DIRECTION('',(0.,0.,1.));
#483=DIRECTION('',(0.,-1.,0.));
#484=DIRECTION('',(0.,0.,-1.));
#485=DIRECTION('',(0.,1.,0.));
#486=DIRECTION('',(0.,0.,1.));
#487=DIRECTION('',(0.,1.,0.));
#488=DIRECTION('',(1.,0.,0.));
#489=DIRECTION('',(0.,1.,0.));
#490=DIRECTION('',(0.,0.,1.));
#491=DIRECTION('',(0.,1.,0.));
#492=DIRECTION('',(0.,0.,1.));
#493=DIRECTION('',(0.,1.,0.));
#494=DIRECTION('',(0.,0.,1.));
#495=DIRECTION('',(0.,1.,0.));
#496=DIRECTION('',(0.,0.,-1.));
#497=DIRECTION('',(0.,1.,0.));
#498=DIRECTION('',(0.,0.,1.));
#499=DIRECTION('',(0.,-1.,0.));
#500=DIRECTION('',(0.,0.,-1.));
#501=DIRECTION('',(0.,1.,0.));
#502=DIRECTION('',(0.,0.,1.));
#503=DIRECTION('',(-1.76742893969078E-16,0.,-1.));
#504=DIRECTION('',(-1.,0.,1.76742893969078E-16));
#505=DIRECTION('',(-1.,0.,1.76742893969078E-16));
#506=DIRECTION('',(0.,1.,0.));
#507=DIRECTION('',(-1.,0.,1.76742893969078E-16));
#508=DIRECTION('',(0.,1.,0.));
#509=DIRECTION('',(0.866025403784438,0.,-0.5));
#510=DIRECTION('',(-0.5,0.,-0.866025403784438));
#511=DIRECTION('',(-0.5,0.,-0.866025403784438));
#512=DIRECTION('',(0.,1.,0.));
#513=DIRECTION('',(-0.5,0.,-0.866025403784438));
#514=DIRECTION('',(0.866025403784439,0.,0.5));
#515=DIRECTION('',(0.5,0.,-0.866025403784439));
#516=DIRECTION('',(0.5,0.,-0.866025403784439));
#517=DIRECTION('',(0.,1.,0.));
#518=DIRECTION('',(0.5,0.,-0.866025403784439));
#519=DIRECTION('',(0.,0.,1.));
#520=DIRECTION('',(1.,0.,0.));
#521=DIRECTION('',(1.,0.,0.));
#522=DIRECTION('',(0.,1.,0.));
#523=DIRECTION('',(1.,0.,0.));
#524=DIRECTION('',(-0.86602540378444,0.,0.499999999999998));
#525=DIRECTION('',(0.499999999999998,0.,0.86602540378444));
#526=DIRECTION('',(0.499999999999998,0.,0.86602540378444));
#527=DIRECTION('',(0.,1.,0.));
#528=DIRECTION('',(0.499999999999998,0.,0.86602540378444));
#529=DIRECTION('',(-0.866025403784437,0.,-0.500000000000003));
#530=DIRECTION('',(-0.500000000000003,0.,0.866025403784437));
#531=DIRECTION('',(-0.500000000000003,0.,0.866025403784437));
#532=DIRECTION('',(-0.500000000000003,0.,0.866025403784437));
#533=DIRECTION('',(0.,-1.,0.));
#534=DIRECTION('',(0.,0.,-1.));
#535=DIRECTION('',(0.,-1.,0.));
#536=DIRECTION('',(0.,0.,-1.));
#537=CARTESIAN_POINT('',(0.,0.,0.));
#538=CARTESIAN_POINT('',(0.,-65.,0.));
#539=CARTESIAN_POINT('',(0.,48.,0.));
#540=CARTESIAN_POINT('',(0.,48.,-16.7));
#541=CARTESIAN_POINT('',(0.,9.00000000000001,0.));
#542=CARTESIAN_POINT('',(0.,9.00000000000001,-16.7));
#543=CARTESIAN_POINT('',(0.,-65.,0.));
#544=CARTESIAN_POINT('',(0.,-9.,0.));
#545=CARTESIAN_POINT('',(0.,-9.,-16.7));
#546=CARTESIAN_POINT('',(0.,-48.,0.));
#547=CARTESIAN_POINT('',(16.7,-48.,0.));
#548=CARTESIAN_POINT('',(0.,65.,0.));
#549=CARTESIAN_POINT('',(0.,65.,0.));
#550=CARTESIAN_POINT('',(0.,65.,16.1245));
#551=CARTESIAN_POINT('',(0.,65.,0.));
#552=CARTESIAN_POINT('',(12.5,65.,0.));
#553=CARTESIAN_POINT('',(0.,-65.,0.));
#554=CARTESIAN_POINT('',(0.,-65.,0.));
#555=CARTESIAN_POINT('',(12.5,-65.,0.));
#556=CARTESIAN_POINT('',(0.,-65.,0.));
#557=CARTESIAN_POINT('',(0.,-65.,0.));
#558=CARTESIAN_POINT('',(0.,-65.,16.1245));
#559=CARTESIAN_POINT('',(0.,-48.,0.));
#560=CARTESIAN_POINT('',(0.,-64.5,0.));
#561=CARTESIAN_POINT('',(0.,-64.5,16.6245));
#562=CARTESIAN_POINT('',(0.,-48.,0.));
#563=CARTESIAN_POINT('',(16.6245,-48.,0.));
#564=CARTESIAN_POINT('',(0.,-48.,0.));
#565=CARTESIAN_POINT('',(0.,48.,0.));
#566=CARTESIAN_POINT('',(0.,64.5,0.));
#567=CARTESIAN_POINT('',(0.,64.5,16.6245));
#568=CARTESIAN_POINT('',(0.,48.,0.));
#569=CARTESIAN_POINT('',(0.,48.,-16.6245));
#570=CARTESIAN_POINT('',(0.,48.,0.));
#571=CARTESIAN_POINT('',(0.,65.,0.));
#572=CARTESIAN_POINT('',(0.,-64.5,0.));
#573=CARTESIAN_POINT('',(9.81495457622364,-9.,17.));
#574=CARTESIAN_POINT('',(9.81495457622364,9.,17.));
#575=CARTESIAN_POINT('',(9.81495457622356,9.,17.));
#576=CARTESIAN_POINT('',(-9.81495457622364,9.,17.));
#577=CARTESIAN_POINT('',(-9.81495457622364,-9.,17.));
#578=CARTESIAN_POINT('',(-9.81495457622364,-9.,17.));
#579=CARTESIAN_POINT('',(9.81495457622364,-9.,17.));
#580=CARTESIAN_POINT('',(9.81495457622356,-9.,17.));
#581=CARTESIAN_POINT('',(9.81495457622356,-9.,17.));
#582=CARTESIAN_POINT('',(-9.81495457622364,-9.,17.));
#583=CARTESIAN_POINT('',(-9.81495457622364,9.,17.));
#584=CARTESIAN_POINT('',(-19.6299091524473,9.,6.93889390390723E-15));
#585=CARTESIAN_POINT('',(-19.6299091524473,-9.,6.93889390390723E-15));
#586=CARTESIAN_POINT('',(-19.6299091524473,-9.,6.93889390390723E-15));
#587=CARTESIAN_POINT('',(-9.81495457622364,-9.,17.));
#588=CARTESIAN_POINT('',(-19.6299091524473,-9.,6.09384443691815E-15));
#589=CARTESIAN_POINT('',(-19.6299091524473,9.,6.09384443691815E-15));
#590=CARTESIAN_POINT('',(-9.81495457622364,9.,-17.));
#591=CARTESIAN_POINT('',(-9.81495457622364,-9.,-17.));
#592=CARTESIAN_POINT('',(-9.81495457622364,-9.,-17.));
#593=CARTESIAN_POINT('',(-19.6299091524473,-9.,6.09384443691815E-15));
#594=CARTESIAN_POINT('',(-9.81495457622364,-9.,-17.));
#595=CARTESIAN_POINT('',(-9.81495457622364,9.,-17.));
#596=CARTESIAN_POINT('',(9.81495457622364,9.,-17.));
#597=CARTESIAN_POINT('',(9.81495457622364,-9.,-17.));
#598=CARTESIAN_POINT('',(9.81495457622364,-9.,-17.));
#599=CARTESIAN_POINT('',(-9.81495457622364,-9.,-17.));
#600=CARTESIAN_POINT('',(9.81495457622364,-9.,-17.));
#601=CARTESIAN_POINT('',(9.81495457622364,9.,-17.));
#602=CARTESIAN_POINT('',(19.6299091524473,9.,5.55111512312578E-14));
#603=CARTESIAN_POINT('',(19.6299091524473,-9.,5.55111512312578E-14));
#604=CARTESIAN_POINT('',(19.6299091524473,-9.,5.55111512312578E-14));
#605=CARTESIAN_POINT('',(9.81495457622364,-9.,-17.));
#606=CARTESIAN_POINT('',(19.6299091524473,-9.,5.08397190087493E-14));
#607=CARTESIAN_POINT('',(19.6299091524473,9.,5.08397190087493E-14));
#608=CARTESIAN_POINT('',(19.6299091524473,-9.,5.08397190087493E-14));
#609=CARTESIAN_POINT('',(-9.81495457622363,-9.,17.));
#610=CARTESIAN_POINT('',(-9.81495457622363,9.,17.));
#611=MECHANICAL_DESIGN_GEOMETRIC_PRESENTATION_REPRESENTATION('',(#265,#266,
#267,#268,#269,#270,#271,#272,#273,#274,#275,#276,#277,#278,#279,#280,#281,
#282,#283),#612);
#612=(
GEOMETRIC_REPRESENTATION_CONTEXT(3)
GLOBAL_UNCERTAINTY_ASSIGNED_CONTEXT((#613))
GLOBAL_UNIT_ASSIGNED_CONTEXT((#616,#615,#614))
REPRESENTATION_CONTEXT('Rohrnippel K.1x130','TOP_LEVEL_ASSEMBLY_PART')
);
#613=UNCERTAINTY_MEASURE_WITH_UNIT(LENGTH_MEASURE(0.005),#616,
'DISTANCE_ACCURACY_VALUE','Maximum Tolerance applied to model');
#614=(
NAMED_UNIT(*)
SI_UNIT($,.STERADIAN.)
SOLID_ANGLE_UNIT()
);
#615=(
NAMED_UNIT(*)
PLANE_ANGLE_UNIT()
SI_UNIT($,.RADIAN.)
);
#616=(
LENGTH_UNIT()
NAMED_UNIT(*)
SI_UNIT(.MILLI.,.METRE.)
);
#617=PRODUCT_DEFINITION_SHAPE('','',#618);
#618=PRODUCT_DEFINITION('','',#620,#619);
#619=PRODUCT_DEFINITION_CONTEXT('',#626,'design');
#620=PRODUCT_DEFINITION_FORMATION_WITH_SPECIFIED_SOURCE('','',#622,
 .NOT_KNOWN.);
#621=PRODUCT_RELATED_PRODUCT_CATEGORY('','',(#622));
#622=PRODUCT('Rohrnippel K.1x130','Rohrnippel K.1x130',
'Rohrnippel K.1x130',(#624));
#623=PRODUCT_CATEGORY('','');
#624=PRODUCT_CONTEXT('',#626,'mechanical');
#625=APPLICATION_PROTOCOL_DEFINITION('international standard',
'automotive_design',2010,#626);
#626=APPLICATION_CONTEXT(
'core data for automotive mechanical design processes');
ENDSEC;
END-ISO-10303-21;
