ISO-10303-21;
HEADER;
/* Generated by software containing ST-Developer
 * from STEP Tools, Inc. (www.steptools.com) 
 */
/* OPTION: strings as raw bytes, not using required /X/ escapes */

FILE_DESCRIPTION(
/* description */ ('Unknown'),
/* implementation_level */ '2;1');

FILE_NAME(
/* name */ '98708712-55-110N',
/* time_stamp */ '2023-05-05T08:09:53+02:00',
/* author */ ('Unknown'),
/* organization */ ('Unknown'),
/* preprocessor_version */ 'ST-DEVELOPER v18.102',
/* originating_system */ 'Solid Edge',
/* authorisation */ 'Unknown');

FILE_SCHEMA (('AUTOMOTIVE_DESIGN {1 0 10303 214 3 1 1}'));
ENDSEC;

DATA;
#10=PROPERTY_DEFINITION_REPRESENTATION(#14,#12);
#11=PROPERTY_DEFINITION_REPRESENTATION(#15,#13);
#12=REPRESENTATION('',(#16),#666);
#13=REPRESENTATION('',(#17),#666);
#14=PROPERTY_DEFINITION('pmi validation property','',#671);
#15=PROPERTY_DEFINITION('pmi validation property','',#671);
#16=VALUE_REPRESENTATION_ITEM('number of annotations',COUNT_MEASURE(0.));
#17=VALUE_REPRESENTATION_ITEM('number of views',COUNT_MEASURE(0.));
#18=SHAPE_REPRESENTATION_RELATIONSHIP('','',#458,#19);
#19=ADVANCED_BREP_SHAPE_REPRESENTATION('',(#456),#666);
#20=LINE('',#628,#38);
#21=LINE('',#631,#39);
#22=LINE('',#633,#40);
#23=LINE('',#635,#41);
#24=LINE('',#637,#42);
#25=LINE('',#639,#43);
#26=LINE('',#641,#44);
#27=LINE('',#643,#45);
#28=LINE('',#645,#46);
#29=LINE('',#647,#47);
#30=LINE('',#649,#48);
#31=LINE('',#651,#49);
#32=LINE('',#653,#50);
#33=LINE('',#655,#51);
#34=LINE('',#657,#52);
#35=LINE('',#659,#53);
#36=LINE('',#661,#54);
#37=LINE('',#662,#55);
#38=VECTOR('',#553,1000.);
#39=VECTOR('',#554,1000.);
#40=VECTOR('',#555,1000.);
#41=VECTOR('',#556,1000.);
#42=VECTOR('',#559,1000.);
#43=VECTOR('',#560,1000.);
#44=VECTOR('',#561,1000.);
#45=VECTOR('',#564,1000.);
#46=VECTOR('',#565,1000.);
#47=VECTOR('',#566,1000.);
#48=VECTOR('',#569,1000.);
#49=VECTOR('',#570,1000.);
#50=VECTOR('',#571,1000.);
#51=VECTOR('',#574,1000.);
#52=VECTOR('',#575,1000.);
#53=VECTOR('',#576,1000.);
#54=VECTOR('',#579,1000.);
#55=VECTOR('',#580,1000.);
#56=CONICAL_SURFACE('',#483,9.8,0.785398163397431);
#57=CONICAL_SURFACE('',#484,9.75,0.785398163397362);
#58=CONICAL_SURFACE('',#485,12.7205,0.785398163397448);
#59=CONICAL_SURFACE('',#486,13.2205,0.785398163397448);
#60=PLANE('',#466);
#61=PLANE('',#472);
#62=PLANE('',#478);
#63=PLANE('',#482);
#64=PLANE('',#487);
#65=PLANE('',#488);
#66=PLANE('',#489);
#67=PLANE('',#490);
#68=PLANE('',#491);
#69=PLANE('',#492);
#70=PLANE('',#493);
#71=PLANE('',#494);
#72=ORIENTED_EDGE('',*,*,#136,.F.);
#73=ORIENTED_EDGE('',*,*,#137,.T.);
#74=ORIENTED_EDGE('',*,*,#138,.F.);
#75=ORIENTED_EDGE('',*,*,#139,.T.);
#76=ORIENTED_EDGE('',*,*,#140,.T.);
#77=ORIENTED_EDGE('',*,*,#141,.T.);
#78=ORIENTED_EDGE('',*,*,#142,.T.);
#79=ORIENTED_EDGE('',*,*,#143,.T.);
#80=ORIENTED_EDGE('',*,*,#144,.T.);
#81=ORIENTED_EDGE('',*,*,#145,.T.);
#82=ORIENTED_EDGE('',*,*,#146,.T.);
#83=ORIENTED_EDGE('',*,*,#147,.F.);
#84=ORIENTED_EDGE('',*,*,#147,.T.);
#85=ORIENTED_EDGE('',*,*,#139,.F.);
#86=ORIENTED_EDGE('',*,*,#148,.T.);
#87=ORIENTED_EDGE('',*,*,#149,.T.);
#88=ORIENTED_EDGE('',*,*,#149,.F.);
#89=ORIENTED_EDGE('',*,*,#136,.T.);
#90=ORIENTED_EDGE('',*,*,#142,.F.);
#91=ORIENTED_EDGE('',*,*,#145,.F.);
#92=ORIENTED_EDGE('',*,*,#141,.F.);
#93=ORIENTED_EDGE('',*,*,#143,.F.);
#94=ORIENTED_EDGE('',*,*,#148,.F.);
#95=ORIENTED_EDGE('',*,*,#140,.F.);
#96=ORIENTED_EDGE('',*,*,#144,.F.);
#97=ORIENTED_EDGE('',*,*,#146,.F.);
#98=ORIENTED_EDGE('',*,*,#150,.T.);
#99=ORIENTED_EDGE('',*,*,#151,.F.);
#100=ORIENTED_EDGE('',*,*,#152,.F.);
#101=ORIENTED_EDGE('',*,*,#153,.T.);
#102=ORIENTED_EDGE('',*,*,#154,.T.);
#103=ORIENTED_EDGE('',*,*,#155,.F.);
#104=ORIENTED_EDGE('',*,*,#156,.F.);
#105=ORIENTED_EDGE('',*,*,#151,.T.);
#106=ORIENTED_EDGE('',*,*,#157,.T.);
#107=ORIENTED_EDGE('',*,*,#158,.F.);
#108=ORIENTED_EDGE('',*,*,#159,.F.);
#109=ORIENTED_EDGE('',*,*,#155,.T.);
#110=ORIENTED_EDGE('',*,*,#160,.T.);
#111=ORIENTED_EDGE('',*,*,#161,.F.);
#112=ORIENTED_EDGE('',*,*,#162,.F.);
#113=ORIENTED_EDGE('',*,*,#158,.T.);
#114=ORIENTED_EDGE('',*,*,#163,.T.);
#115=ORIENTED_EDGE('',*,*,#164,.F.);
#116=ORIENTED_EDGE('',*,*,#165,.F.);
#117=ORIENTED_EDGE('',*,*,#161,.T.);
#118=ORIENTED_EDGE('',*,*,#166,.T.);
#119=ORIENTED_EDGE('',*,*,#153,.F.);
#120=ORIENTED_EDGE('',*,*,#167,.F.);
#121=ORIENTED_EDGE('',*,*,#164,.T.);
#122=ORIENTED_EDGE('',*,*,#138,.T.);
#123=ORIENTED_EDGE('',*,*,#152,.T.);
#124=ORIENTED_EDGE('',*,*,#156,.T.);
#125=ORIENTED_EDGE('',*,*,#159,.T.);
#126=ORIENTED_EDGE('',*,*,#162,.T.);
#127=ORIENTED_EDGE('',*,*,#165,.T.);
#128=ORIENTED_EDGE('',*,*,#167,.T.);
#129=ORIENTED_EDGE('',*,*,#137,.F.);
#130=ORIENTED_EDGE('',*,*,#150,.F.);
#131=ORIENTED_EDGE('',*,*,#166,.F.);
#132=ORIENTED_EDGE('',*,*,#163,.F.);
#133=ORIENTED_EDGE('',*,*,#160,.F.);
#134=ORIENTED_EDGE('',*,*,#157,.F.);
#135=ORIENTED_EDGE('',*,*,#154,.F.);
#136=EDGE_CURVE('',#168,#168,#194,.T.);
#137=EDGE_CURVE('',#169,#169,#195,.F.);
#138=EDGE_CURVE('',#170,#170,#196,.F.);
#139=EDGE_CURVE('',#171,#171,#197,.T.);
#140=EDGE_CURVE('',#172,#172,#198,.T.);
#141=EDGE_CURVE('',#173,#173,#199,.F.);
#142=EDGE_CURVE('',#174,#174,#200,.F.);
#143=EDGE_CURVE('',#175,#175,#201,.T.);
#144=EDGE_CURVE('',#176,#176,#202,.F.);
#145=EDGE_CURVE('',#177,#177,#203,.T.);
#146=EDGE_CURVE('',#178,#178,#204,.T.);
#147=EDGE_CURVE('',#179,#179,#205,.T.);
#148=EDGE_CURVE('',#180,#180,#206,.F.);
#149=EDGE_CURVE('',#181,#181,#207,.T.);
#150=EDGE_CURVE('',#182,#183,#20,.T.);
#151=EDGE_CURVE('',#184,#183,#21,.T.);
#152=EDGE_CURVE('',#185,#184,#22,.T.);
#153=EDGE_CURVE('',#185,#182,#23,.T.);
#154=EDGE_CURVE('',#183,#186,#24,.T.);
#155=EDGE_CURVE('',#187,#186,#25,.T.);
#156=EDGE_CURVE('',#184,#187,#26,.T.);
#157=EDGE_CURVE('',#186,#188,#27,.T.);
#158=EDGE_CURVE('',#189,#188,#28,.T.);
#159=EDGE_CURVE('',#187,#189,#29,.T.);
#160=EDGE_CURVE('',#188,#190,#30,.T.);
#161=EDGE_CURVE('',#191,#190,#31,.T.);
#162=EDGE_CURVE('',#189,#191,#32,.T.);
#163=EDGE_CURVE('',#190,#192,#33,.T.);
#164=EDGE_CURVE('',#193,#192,#34,.T.);
#165=EDGE_CURVE('',#191,#193,#35,.T.);
#166=EDGE_CURVE('',#192,#182,#36,.T.);
#167=EDGE_CURVE('',#193,#185,#37,.T.);
#168=VERTEX_POINT('',#588);
#169=VERTEX_POINT('',#590);
#170=VERTEX_POINT('',#593);
#171=VERTEX_POINT('',#595);
#172=VERTEX_POINT('',#598);
#173=VERTEX_POINT('',#600);
#174=VERTEX_POINT('',#603);
#175=VERTEX_POINT('',#605);
#176=VERTEX_POINT('',#608);
#177=VERTEX_POINT('',#610);
#178=VERTEX_POINT('',#613);
#179=VERTEX_POINT('',#615);
#180=VERTEX_POINT('',#619);
#181=VERTEX_POINT('',#621);
#182=VERTEX_POINT('',#629);
#183=VERTEX_POINT('',#630);
#184=VERTEX_POINT('',#632);
#185=VERTEX_POINT('',#634);
#186=VERTEX_POINT('',#638);
#187=VERTEX_POINT('',#640);
#188=VERTEX_POINT('',#644);
#189=VERTEX_POINT('',#646);
#190=VERTEX_POINT('',#650);
#191=VERTEX_POINT('',#652);
#192=VERTEX_POINT('',#656);
#193=VERTEX_POINT('',#658);
#194=CIRCLE('',#461,13.4);
#195=CIRCLE('',#462,13.4);
#196=CIRCLE('',#464,13.4);
#197=CIRCLE('',#465,13.4);
#198=CIRCLE('',#467,12.7205);
#199=CIRCLE('',#468,9.8);
#200=CIRCLE('',#470,9.75);
#201=CIRCLE('',#471,9.75);
#202=CIRCLE('',#473,12.7205);
#203=CIRCLE('',#474,9.8);
#204=CIRCLE('',#476,13.2205);
#205=CIRCLE('',#477,13.2205);
#206=CIRCLE('',#480,13.2205);
#207=CIRCLE('',#481,13.2205);
#208=EDGE_LOOP('',(#72));
#209=EDGE_LOOP('',(#73));
#210=EDGE_LOOP('',(#74));
#211=EDGE_LOOP('',(#75));
#212=EDGE_LOOP('',(#76));
#213=EDGE_LOOP('',(#77));
#214=EDGE_LOOP('',(#78));
#215=EDGE_LOOP('',(#79));
#216=EDGE_LOOP('',(#80));
#217=EDGE_LOOP('',(#81));
#218=EDGE_LOOP('',(#82));
#219=EDGE_LOOP('',(#83));
#220=EDGE_LOOP('',(#84));
#221=EDGE_LOOP('',(#85));
#222=EDGE_LOOP('',(#86));
#223=EDGE_LOOP('',(#87));
#224=EDGE_LOOP('',(#88));
#225=EDGE_LOOP('',(#89));
#226=EDGE_LOOP('',(#90));
#227=EDGE_LOOP('',(#91));
#228=EDGE_LOOP('',(#92));
#229=EDGE_LOOP('',(#93));
#230=EDGE_LOOP('',(#94));
#231=EDGE_LOOP('',(#95));
#232=EDGE_LOOP('',(#96));
#233=EDGE_LOOP('',(#97));
#234=EDGE_LOOP('',(#98,#99,#100,#101));
#235=EDGE_LOOP('',(#102,#103,#104,#105));
#236=EDGE_LOOP('',(#106,#107,#108,#109));
#237=EDGE_LOOP('',(#110,#111,#112,#113));
#238=EDGE_LOOP('',(#114,#115,#116,#117));
#239=EDGE_LOOP('',(#118,#119,#120,#121));
#240=EDGE_LOOP('',(#122));
#241=EDGE_LOOP('',(#123,#124,#125,#126,#127,#128));
#242=EDGE_LOOP('',(#129));
#243=EDGE_LOOP('',(#130,#131,#132,#133,#134,#135));
#244=FACE_BOUND('',#208,.T.);
#245=FACE_BOUND('',#209,.T.);
#246=FACE_BOUND('',#210,.T.);
#247=FACE_BOUND('',#211,.T.);
#248=FACE_BOUND('',#212,.T.);
#249=FACE_BOUND('',#213,.T.);
#250=FACE_BOUND('',#214,.T.);
#251=FACE_BOUND('',#215,.T.);
#252=FACE_BOUND('',#216,.T.);
#253=FACE_BOUND('',#217,.T.);
#254=FACE_BOUND('',#218,.T.);
#255=FACE_BOUND('',#219,.T.);
#256=FACE_BOUND('',#220,.T.);
#257=FACE_BOUND('',#221,.T.);
#258=FACE_BOUND('',#222,.T.);
#259=FACE_BOUND('',#223,.T.);
#260=FACE_BOUND('',#224,.T.);
#261=FACE_BOUND('',#225,.T.);
#262=FACE_BOUND('',#226,.T.);
#263=FACE_BOUND('',#227,.T.);
#264=FACE_BOUND('',#228,.T.);
#265=FACE_BOUND('',#229,.T.);
#266=FACE_BOUND('',#230,.T.);
#267=FACE_BOUND('',#231,.T.);
#268=FACE_BOUND('',#232,.T.);
#269=FACE_BOUND('',#233,.T.);
#270=FACE_BOUND('',#234,.T.);
#271=FACE_BOUND('',#235,.T.);
#272=FACE_BOUND('',#236,.T.);
#273=FACE_BOUND('',#237,.T.);
#274=FACE_BOUND('',#238,.T.);
#275=FACE_BOUND('',#239,.T.);
#276=FACE_BOUND('',#240,.T.);
#277=FACE_BOUND('',#241,.T.);
#278=FACE_BOUND('',#242,.T.);
#279=FACE_BOUND('',#243,.T.);
#280=CYLINDRICAL_SURFACE('',#460,13.4);
#281=CYLINDRICAL_SURFACE('',#463,13.4);
#282=CYLINDRICAL_SURFACE('',#469,9.75);
#283=CYLINDRICAL_SURFACE('',#475,13.2205);
#284=CYLINDRICAL_SURFACE('',#479,13.2205);
#285=STYLED_ITEM('',(#306),#434);
#286=STYLED_ITEM('',(#307),#435);
#287=STYLED_ITEM('',(#308),#436);
#288=STYLED_ITEM('',(#309),#437);
#289=STYLED_ITEM('',(#310),#438);
#290=STYLED_ITEM('',(#311),#439);
#291=STYLED_ITEM('',(#312),#440);
#292=STYLED_ITEM('',(#313),#441);
#293=STYLED_ITEM('',(#314),#442);
#294=STYLED_ITEM('',(#315),#443);
#295=STYLED_ITEM('',(#316),#444);
#296=STYLED_ITEM('',(#317),#445);
#297=STYLED_ITEM('',(#318),#446);
#298=STYLED_ITEM('',(#319),#447);
#299=STYLED_ITEM('',(#320),#448);
#300=STYLED_ITEM('',(#321),#449);
#301=STYLED_ITEM('',(#322),#450);
#302=STYLED_ITEM('',(#323),#451);
#303=STYLED_ITEM('',(#324),#452);
#304=STYLED_ITEM('',(#325),#453);
#305=STYLED_ITEM('',(#326),#454);
#306=PRESENTATION_STYLE_ASSIGNMENT((#327));
#307=PRESENTATION_STYLE_ASSIGNMENT((#328));
#308=PRESENTATION_STYLE_ASSIGNMENT((#329));
#309=PRESENTATION_STYLE_ASSIGNMENT((#330));
#310=PRESENTATION_STYLE_ASSIGNMENT((#331));
#311=PRESENTATION_STYLE_ASSIGNMENT((#332));
#312=PRESENTATION_STYLE_ASSIGNMENT((#333));
#313=PRESENTATION_STYLE_ASSIGNMENT((#334));
#314=PRESENTATION_STYLE_ASSIGNMENT((#335));
#315=PRESENTATION_STYLE_ASSIGNMENT((#336));
#316=PRESENTATION_STYLE_ASSIGNMENT((#337));
#317=PRESENTATION_STYLE_ASSIGNMENT((#338));
#318=PRESENTATION_STYLE_ASSIGNMENT((#339));
#319=PRESENTATION_STYLE_ASSIGNMENT((#340));
#320=PRESENTATION_STYLE_ASSIGNMENT((#341));
#321=PRESENTATION_STYLE_ASSIGNMENT((#342));
#322=PRESENTATION_STYLE_ASSIGNMENT((#343));
#323=PRESENTATION_STYLE_ASSIGNMENT((#344));
#324=PRESENTATION_STYLE_ASSIGNMENT((#345));
#325=PRESENTATION_STYLE_ASSIGNMENT((#346));
#326=PRESENTATION_STYLE_ASSIGNMENT((#347));
#327=SURFACE_STYLE_USAGE(.BOTH.,#348);
#328=SURFACE_STYLE_USAGE(.BOTH.,#349);
#329=SURFACE_STYLE_USAGE(.BOTH.,#350);
#330=SURFACE_STYLE_USAGE(.BOTH.,#351);
#331=SURFACE_STYLE_USAGE(.BOTH.,#352);
#332=SURFACE_STYLE_USAGE(.BOTH.,#353);
#333=SURFACE_STYLE_USAGE(.BOTH.,#354);
#334=SURFACE_STYLE_USAGE(.BOTH.,#355);
#335=SURFACE_STYLE_USAGE(.BOTH.,#356);
#336=SURFACE_STYLE_USAGE(.BOTH.,#357);
#337=SURFACE_STYLE_USAGE(.BOTH.,#358);
#338=SURFACE_STYLE_USAGE(.BOTH.,#359);
#339=SURFACE_STYLE_USAGE(.BOTH.,#360);
#340=SURFACE_STYLE_USAGE(.BOTH.,#361);
#341=SURFACE_STYLE_USAGE(.BOTH.,#362);
#342=SURFACE_STYLE_USAGE(.BOTH.,#363);
#343=SURFACE_STYLE_USAGE(.BOTH.,#364);
#344=SURFACE_STYLE_USAGE(.BOTH.,#365);
#345=SURFACE_STYLE_USAGE(.BOTH.,#366);
#346=SURFACE_STYLE_USAGE(.BOTH.,#367);
#347=SURFACE_STYLE_USAGE(.BOTH.,#368);
#348=SURFACE_SIDE_STYLE('',(#369));
#349=SURFACE_SIDE_STYLE('',(#370));
#350=SURFACE_SIDE_STYLE('',(#371));
#351=SURFACE_SIDE_STYLE('',(#372));
#352=SURFACE_SIDE_STYLE('',(#373));
#353=SURFACE_SIDE_STYLE('',(#374));
#354=SURFACE_SIDE_STYLE('',(#375));
#355=SURFACE_SIDE_STYLE('',(#376));
#356=SURFACE_SIDE_STYLE('',(#377));
#357=SURFACE_SIDE_STYLE('',(#378));
#358=SURFACE_SIDE_STYLE('',(#379));
#359=SURFACE_SIDE_STYLE('',(#380));
#360=SURFACE_SIDE_STYLE('',(#381));
#361=SURFACE_SIDE_STYLE('',(#382));
#362=SURFACE_SIDE_STYLE('',(#383));
#363=SURFACE_SIDE_STYLE('',(#384));
#364=SURFACE_SIDE_STYLE('',(#385));
#365=SURFACE_SIDE_STYLE('',(#386));
#366=SURFACE_SIDE_STYLE('',(#387));
#367=SURFACE_SIDE_STYLE('',(#388));
#368=SURFACE_SIDE_STYLE('',(#389));
#369=SURFACE_STYLE_FILL_AREA(#390);
#370=SURFACE_STYLE_FILL_AREA(#391);
#371=SURFACE_STYLE_FILL_AREA(#392);
#372=SURFACE_STYLE_FILL_AREA(#393);
#373=SURFACE_STYLE_FILL_AREA(#394);
#374=SURFACE_STYLE_FILL_AREA(#395);
#375=SURFACE_STYLE_FILL_AREA(#396);
#376=SURFACE_STYLE_FILL_AREA(#397);
#377=SURFACE_STYLE_FILL_AREA(#398);
#378=SURFACE_STYLE_FILL_AREA(#399);
#379=SURFACE_STYLE_FILL_AREA(#400);
#380=SURFACE_STYLE_FILL_AREA(#401);
#381=SURFACE_STYLE_FILL_AREA(#402);
#382=SURFACE_STYLE_FILL_AREA(#403);
#383=SURFACE_STYLE_FILL_AREA(#404);
#384=SURFACE_STYLE_FILL_AREA(#405);
#385=SURFACE_STYLE_FILL_AREA(#406);
#386=SURFACE_STYLE_FILL_AREA(#407);
#387=SURFACE_STYLE_FILL_AREA(#408);
#388=SURFACE_STYLE_FILL_AREA(#409);
#389=SURFACE_STYLE_FILL_AREA(#410);
#390=FILL_AREA_STYLE('',(#411));
#391=FILL_AREA_STYLE('',(#412));
#392=FILL_AREA_STYLE('',(#413));
#393=FILL_AREA_STYLE('',(#414));
#394=FILL_AREA_STYLE('',(#415));
#395=FILL_AREA_STYLE('',(#416));
#396=FILL_AREA_STYLE('',(#417));
#397=FILL_AREA_STYLE('',(#418));
#398=FILL_AREA_STYLE('',(#419));
#399=FILL_AREA_STYLE('',(#420));
#400=FILL_AREA_STYLE('',(#421));
#401=FILL_AREA_STYLE('',(#422));
#402=FILL_AREA_STYLE('',(#423));
#403=FILL_AREA_STYLE('',(#424));
#404=FILL_AREA_STYLE('',(#425));
#405=FILL_AREA_STYLE('',(#426));
#406=FILL_AREA_STYLE('',(#427));
#407=FILL_AREA_STYLE('',(#428));
#408=FILL_AREA_STYLE('',(#429));
#409=FILL_AREA_STYLE('',(#430));
#410=FILL_AREA_STYLE('',(#431));
#411=FILL_AREA_STYLE_COLOUR('',#432);
#412=FILL_AREA_STYLE_COLOUR('',#432);
#413=FILL_AREA_STYLE_COLOUR('',#432);
#414=FILL_AREA_STYLE_COLOUR('',#432);
#415=FILL_AREA_STYLE_COLOUR('',#432);
#416=FILL_AREA_STYLE_COLOUR('',#433);
#417=FILL_AREA_STYLE_COLOUR('',#432);
#418=FILL_AREA_STYLE_COLOUR('',#433);
#419=FILL_AREA_STYLE_COLOUR('',#432);
#420=FILL_AREA_STYLE_COLOUR('',#432);
#421=FILL_AREA_STYLE_COLOUR('',#432);
#422=FILL_AREA_STYLE_COLOUR('',#432);
#423=FILL_AREA_STYLE_COLOUR('',#432);
#424=FILL_AREA_STYLE_COLOUR('',#432);
#425=FILL_AREA_STYLE_COLOUR('',#432);
#426=FILL_AREA_STYLE_COLOUR('',#432);
#427=FILL_AREA_STYLE_COLOUR('',#432);
#428=FILL_AREA_STYLE_COLOUR('',#432);
#429=FILL_AREA_STYLE_COLOUR('',#432);
#430=FILL_AREA_STYLE_COLOUR('',#432);
#431=FILL_AREA_STYLE_COLOUR('',#432);
#432=COLOUR_RGB('',0.752941191196442,0.752941191196442,0.752941191196442);
#433=COLOUR_RGB('',0.396078497171402,0.941176474094391,0.450980395078659);
#434=ADVANCED_FACE('',(#244,#245),#280,.T.);
#435=ADVANCED_FACE('',(#246,#247),#281,.T.);
#436=ADVANCED_FACE('',(#248,#249),#60,.T.);
#437=ADVANCED_FACE('',(#250,#251),#282,.F.);
#438=ADVANCED_FACE('',(#252,#253),#61,.F.);
#439=ADVANCED_FACE('',(#254,#255),#283,.T.);
#440=ADVANCED_FACE('',(#256,#257),#62,.F.);
#441=ADVANCED_FACE('',(#258,#259),#284,.T.);
#442=ADVANCED_FACE('',(#260,#261),#63,.T.);
#443=ADVANCED_FACE('',(#262,#263),#56,.F.);
#444=ADVANCED_FACE('',(#264,#265),#57,.F.);
#445=ADVANCED_FACE('',(#266,#267),#58,.T.);
#446=ADVANCED_FACE('',(#268,#269),#59,.T.);
#447=ADVANCED_FACE('',(#270),#64,.F.);
#448=ADVANCED_FACE('',(#271),#65,.F.);
#449=ADVANCED_FACE('',(#272),#66,.F.);
#450=ADVANCED_FACE('',(#273),#67,.F.);
#451=ADVANCED_FACE('',(#274),#68,.F.);
#452=ADVANCED_FACE('',(#275),#69,.F.);
#453=ADVANCED_FACE('',(#276,#277),#70,.T.);
#454=ADVANCED_FACE('',(#278,#279),#71,.F.);
#455=CLOSED_SHELL('',(#434,#435,#436,#437,#438,#439,#440,#441,#442,#443,
#444,#445,#446,#447,#448,#449,#450,#451,#452,#453,#454));
#456=MANIFOLD_SOLID_BREP('',#455);
#457=SHAPE_DEFINITION_REPRESENTATION(#671,#458);
#458=SHAPE_REPRESENTATION('Rohrnippel K.3_4x110',(#459),#666);
#459=AXIS2_PLACEMENT_3D('',#585,#495,#496);
#460=AXIS2_PLACEMENT_3D('',#586,#497,#498);
#461=AXIS2_PLACEMENT_3D('',#587,#499,#500);
#462=AXIS2_PLACEMENT_3D('',#589,#501,#502);
#463=AXIS2_PLACEMENT_3D('',#591,#503,#504);
#464=AXIS2_PLACEMENT_3D('',#592,#505,#506);
#465=AXIS2_PLACEMENT_3D('',#594,#507,#508);
#466=AXIS2_PLACEMENT_3D('',#596,#509,#510);
#467=AXIS2_PLACEMENT_3D('',#597,#511,#512);
#468=AXIS2_PLACEMENT_3D('',#599,#513,#514);
#469=AXIS2_PLACEMENT_3D('',#601,#515,#516);
#470=AXIS2_PLACEMENT_3D('',#602,#517,#518);
#471=AXIS2_PLACEMENT_3D('',#604,#519,#520);
#472=AXIS2_PLACEMENT_3D('',#606,#521,#522);
#473=AXIS2_PLACEMENT_3D('',#607,#523,#524);
#474=AXIS2_PLACEMENT_3D('',#609,#525,#526);
#475=AXIS2_PLACEMENT_3D('',#611,#527,#528);
#476=AXIS2_PLACEMENT_3D('',#612,#529,#530);
#477=AXIS2_PLACEMENT_3D('',#614,#531,#532);
#478=AXIS2_PLACEMENT_3D('',#616,#533,#534);
#479=AXIS2_PLACEMENT_3D('',#617,#535,#536);
#480=AXIS2_PLACEMENT_3D('',#618,#537,#538);
#481=AXIS2_PLACEMENT_3D('',#620,#539,#540);
#482=AXIS2_PLACEMENT_3D('',#622,#541,#542);
#483=AXIS2_PLACEMENT_3D('',#623,#543,#544);
#484=AXIS2_PLACEMENT_3D('',#624,#545,#546);
#485=AXIS2_PLACEMENT_3D('',#625,#547,#548);
#486=AXIS2_PLACEMENT_3D('',#626,#549,#550);
#487=AXIS2_PLACEMENT_3D('',#627,#551,#552);
#488=AXIS2_PLACEMENT_3D('',#636,#557,#558);
#489=AXIS2_PLACEMENT_3D('',#642,#562,#563);
#490=AXIS2_PLACEMENT_3D('',#648,#567,#568);
#491=AXIS2_PLACEMENT_3D('',#654,#572,#573);
#492=AXIS2_PLACEMENT_3D('',#660,#577,#578);
#493=AXIS2_PLACEMENT_3D('',#663,#581,#582);
#494=AXIS2_PLACEMENT_3D('',#664,#583,#584);
#495=DIRECTION('',(0.,0.,1.));
#496=DIRECTION('',(1.,0.,0.));
#497=DIRECTION('',(0.,1.,0.));
#498=DIRECTION('',(0.,0.,1.));
#499=DIRECTION('',(0.,1.,0.));
#500=DIRECTION('',(0.,0.,-1.));
#501=DIRECTION('',(0.,-1.,0.));
#502=DIRECTION('',(0.,0.,-1.));
#503=DIRECTION('',(0.,1.,0.));
#504=DIRECTION('',(0.,0.,1.));
#505=DIRECTION('',(0.,-1.,0.));
#506=DIRECTION('',(0.,0.,-1.));
#507=DIRECTION('',(0.,1.,0.));
#508=DIRECTION('',(1.,0.,0.));
#509=DIRECTION('',(0.,1.,0.));
#510=DIRECTION('',(0.,0.,1.));
#511=DIRECTION('',(0.,1.,0.));
#512=DIRECTION('',(0.,0.,1.));
#513=DIRECTION('',(0.,1.,0.));
#514=DIRECTION('',(0.,0.,1.));
#515=DIRECTION('',(0.,1.,0.));
#516=DIRECTION('',(0.,0.,1.));
#517=DIRECTION('',(0.,1.,0.));
#518=DIRECTION('',(0.,0.,1.));
#519=DIRECTION('',(0.,1.,0.));
#520=DIRECTION('',(0.,0.,1.));
#521=DIRECTION('',(0.,1.,0.));
#522=DIRECTION('',(0.,0.,1.));
#523=DIRECTION('',(0.,1.,0.));
#524=DIRECTION('',(0.,0.,1.));
#525=DIRECTION('',(0.,1.,0.));
#526=DIRECTION('',(0.,0.,1.));
#527=DIRECTION('',(0.,-1.,0.));
#528=DIRECTION('',(0.,0.,-1.));
#529=DIRECTION('',(0.,1.,0.));
#530=DIRECTION('',(0.,0.,1.));
#531=DIRECTION('',(0.,1.,0.));
#532=DIRECTION('',(1.,0.,0.));
#533=DIRECTION('',(0.,1.,0.));
#534=DIRECTION('',(0.,0.,1.));
#535=DIRECTION('',(0.,1.,0.));
#536=DIRECTION('',(0.,0.,1.));
#537=DIRECTION('',(0.,1.,0.));
#538=DIRECTION('',(0.,0.,1.));
#539=DIRECTION('',(0.,1.,0.));
#540=DIRECTION('',(0.,0.,-1.));
#541=DIRECTION('',(0.,1.,0.));
#542=DIRECTION('',(0.,0.,1.));
#543=DIRECTION('',(0.,-1.,0.));
#544=DIRECTION('',(0.,0.,-1.));
#545=DIRECTION('',(0.,1.,0.));
#546=DIRECTION('',(0.,0.,1.));
#547=DIRECTION('',(0.,-1.,0.));
#548=DIRECTION('',(0.,0.,-1.));
#549=DIRECTION('',(0.,1.,0.));
#550=DIRECTION('',(0.,0.,1.));
#551=DIRECTION('',(0.,0.,-1.));
#552=DIRECTION('',(-1.,0.,0.));
#553=DIRECTION('',(-1.,0.,0.));
#554=DIRECTION('',(0.,1.,0.));
#555=DIRECTION('',(-1.,0.,0.));
#556=DIRECTION('',(0.,1.,0.));
#557=DIRECTION('',(0.866025403784439,0.,-0.5));
#558=DIRECTION('',(-0.5,0.,-0.866025403784439));
#559=DIRECTION('',(-0.5,0.,-0.866025403784439));
#560=DIRECTION('',(0.,1.,0.));
#561=DIRECTION('',(-0.5,0.,-0.866025403784439));
#562=DIRECTION('',(0.866025403784439,0.,0.5));
#563=DIRECTION('',(0.5,0.,-0.866025403784439));
#564=DIRECTION('',(0.5,0.,-0.866025403784439));
#565=DIRECTION('',(0.,1.,0.));
#566=DIRECTION('',(0.5,0.,-0.866025403784439));
#567=DIRECTION('',(1.11282562869419E-16,0.,1.));
#568=DIRECTION('',(1.,0.,-1.11282562869419E-16));
#569=DIRECTION('',(1.,0.,-1.11282562869419E-16));
#570=DIRECTION('',(0.,1.,0.));
#571=DIRECTION('',(1.,0.,-1.11282562869419E-16));
#572=DIRECTION('',(-0.86602540378444,0.,0.499999999999998));
#573=DIRECTION('',(0.499999999999998,0.,0.86602540378444));
#574=DIRECTION('',(0.499999999999998,0.,0.86602540378444));
#575=DIRECTION('',(0.,1.,0.));
#576=DIRECTION('',(0.499999999999998,0.,0.86602540378444));
#577=DIRECTION('',(-0.866025403784437,0.,-0.500000000000002));
#578=DIRECTION('',(-0.500000000000003,0.,0.866025403784437));
#579=DIRECTION('',(-0.500000000000003,0.,0.866025403784437));
#580=DIRECTION('',(-0.500000000000003,0.,0.866025403784437));
#581=DIRECTION('',(0.,-1.,0.));
#582=DIRECTION('',(0.,0.,-1.));
#583=DIRECTION('',(0.,-1.,0.));
#584=DIRECTION('',(0.,0.,-1.));
#585=CARTESIAN_POINT('',(0.,0.,0.));
#586=CARTESIAN_POINT('',(0.,-55.,0.));
#587=CARTESIAN_POINT('',(0.,38.,0.));
#588=CARTESIAN_POINT('',(0.,38.,-13.4));
#589=CARTESIAN_POINT('',(0.,7.5,0.));
#590=CARTESIAN_POINT('',(0.,7.5,-13.4));
#591=CARTESIAN_POINT('',(0.,-55.,0.));
#592=CARTESIAN_POINT('',(0.,-7.5,0.));
#593=CARTESIAN_POINT('',(0.,-7.5,-13.4));
#594=CARTESIAN_POINT('',(0.,-38.,0.));
#595=CARTESIAN_POINT('',(13.4,-38.,0.));
#596=CARTESIAN_POINT('',(0.,55.,0.));
#597=CARTESIAN_POINT('',(0.,55.,0.));
#598=CARTESIAN_POINT('',(0.,55.,12.7205));
#599=CARTESIAN_POINT('',(0.,55.,0.));
#600=CARTESIAN_POINT('',(0.,55.,9.8));
#601=CARTESIAN_POINT('',(0.,-55.,0.));
#602=CARTESIAN_POINT('',(0.,-54.95,0.));
#603=CARTESIAN_POINT('',(0.,-54.95,9.75));
#604=CARTESIAN_POINT('',(0.,54.95,0.));
#605=CARTESIAN_POINT('',(0.,54.95,9.75));
#606=CARTESIAN_POINT('',(0.,-55.,0.));
#607=CARTESIAN_POINT('',(0.,-55.,0.));
#608=CARTESIAN_POINT('',(0.,-55.,12.7205));
#609=CARTESIAN_POINT('',(0.,-55.,0.));
#610=CARTESIAN_POINT('',(0.,-55.,9.8));
#611=CARTESIAN_POINT('',(0.,-38.,0.));
#612=CARTESIAN_POINT('',(0.,-54.5,0.));
#613=CARTESIAN_POINT('',(0.,-54.5,13.2205));
#614=CARTESIAN_POINT('',(0.,-38.,0.));
#615=CARTESIAN_POINT('',(13.2205,-38.,0.));
#616=CARTESIAN_POINT('',(0.,-38.,0.));
#617=CARTESIAN_POINT('',(0.,38.,0.));
#618=CARTESIAN_POINT('',(0.,54.5,0.));
#619=CARTESIAN_POINT('',(0.,54.5,13.2205));
#620=CARTESIAN_POINT('',(0.,38.,0.));
#621=CARTESIAN_POINT('',(0.,38.,-13.2205));
#622=CARTESIAN_POINT('',(0.,38.,0.));
#623=CARTESIAN_POINT('',(0.,-55.,0.));
#624=CARTESIAN_POINT('',(0.,54.95,0.));
#625=CARTESIAN_POINT('',(0.,55.,0.));
#626=CARTESIAN_POINT('',(0.,-54.5,0.));
#627=CARTESIAN_POINT('',(7.79422863405995,-7.5,13.5));
#628=CARTESIAN_POINT('',(7.79422863405995,7.5,13.5));
#629=CARTESIAN_POINT('',(7.79422863405988,7.5,13.5));
#630=CARTESIAN_POINT('',(-7.79422863405995,7.5,13.5));
#631=CARTESIAN_POINT('',(-7.79422863405995,-7.5,13.5));
#632=CARTESIAN_POINT('',(-7.79422863405995,-7.5,13.5));
#633=CARTESIAN_POINT('',(7.79422863405995,-7.5,13.5));
#634=CARTESIAN_POINT('',(7.79422863405988,-7.5,13.5));
#635=CARTESIAN_POINT('',(7.79422863405988,-7.5,13.5));
#636=CARTESIAN_POINT('',(-7.79422863405995,-7.5,13.5));
#637=CARTESIAN_POINT('',(-7.79422863405995,7.5,13.5));
#638=CARTESIAN_POINT('',(-15.5884572681199,7.5,3.46944695195361E-15));
#639=CARTESIAN_POINT('',(-15.5884572681199,-7.5,3.46944695195361E-15));
#640=CARTESIAN_POINT('',(-15.5884572681199,-7.5,3.46944695195361E-15));
#641=CARTESIAN_POINT('',(-7.79422863405995,-7.5,13.5));
#642=CARTESIAN_POINT('',(-15.5884572681199,-7.5,4.13020274644744E-15));
#643=CARTESIAN_POINT('',(-15.5884572681199,7.5,4.13020274644744E-15));
#644=CARTESIAN_POINT('',(-7.79422863405995,7.5,-13.5));
#645=CARTESIAN_POINT('',(-7.79422863405995,-7.5,-13.5));
#646=CARTESIAN_POINT('',(-7.79422863405995,-7.5,-13.5));
#647=CARTESIAN_POINT('',(-15.5884572681199,-7.5,4.13020274644744E-15));
#648=CARTESIAN_POINT('',(-7.79422863405995,-7.5,-13.5));
#649=CARTESIAN_POINT('',(-7.79422863405995,7.5,-13.5));
#650=CARTESIAN_POINT('',(7.79422863405994,7.5,-13.5));
#651=CARTESIAN_POINT('',(7.79422863405994,-7.5,-13.5));
#652=CARTESIAN_POINT('',(7.79422863405994,-7.5,-13.5));
#653=CARTESIAN_POINT('',(-7.79422863405995,-7.5,-13.5));
#654=CARTESIAN_POINT('',(7.79422863405994,-7.5,-13.5));
#655=CARTESIAN_POINT('',(7.79422863405994,7.5,-13.5));
#656=CARTESIAN_POINT('',(15.5884572681199,7.5,4.5102810375397E-14));
#657=CARTESIAN_POINT('',(15.5884572681199,-7.5,4.5102810375397E-14));
#658=CARTESIAN_POINT('',(15.5884572681199,-7.5,4.5102810375397E-14));
#659=CARTESIAN_POINT('',(7.79422863405994,-7.5,-13.5));
#660=CARTESIAN_POINT('',(15.5884572681199,-7.5,4.24135691845678E-14));
#661=CARTESIAN_POINT('',(15.5884572681199,7.5,4.24135691845678E-14));
#662=CARTESIAN_POINT('',(15.5884572681199,-7.5,4.24135691845678E-14));
#663=CARTESIAN_POINT('',(-7.79422863405994,-7.5,13.5));
#664=CARTESIAN_POINT('',(-7.79422863405994,7.5,13.5));
#665=MECHANICAL_DESIGN_GEOMETRIC_PRESENTATION_REPRESENTATION('',(#285,#286,
#287,#288,#289,#290,#291,#292,#293,#294,#295,#296,#297,#298,#299,#300,#301,
#302,#303,#304,#305),#666);
#666=(
GEOMETRIC_REPRESENTATION_CONTEXT(3)
GLOBAL_UNCERTAINTY_ASSIGNED_CONTEXT((#667))
GLOBAL_UNIT_ASSIGNED_CONTEXT((#670,#669,#668))
REPRESENTATION_CONTEXT('Rohrnippel K.3_4x110','TOP_LEVEL_ASSEMBLY_PART')
);
#667=UNCERTAINTY_MEASURE_WITH_UNIT(LENGTH_MEASURE(0.005),#670,
'DISTANCE_ACCURACY_VALUE','Maximum Tolerance applied to model');
#668=(
NAMED_UNIT(*)
SI_UNIT($,.STERADIAN.)
SOLID_ANGLE_UNIT()
);
#669=(
NAMED_UNIT(*)
PLANE_ANGLE_UNIT()
SI_UNIT($,.RADIAN.)
);
#670=(
LENGTH_UNIT()
NAMED_UNIT(*)
SI_UNIT(.MILLI.,.METRE.)
);
#671=PRODUCT_DEFINITION_SHAPE('','',#672);
#672=PRODUCT_DEFINITION('','',#674,#673);
#673=PRODUCT_DEFINITION_CONTEXT('',#680,'design');
#674=PRODUCT_DEFINITION_FORMATION_WITH_SPECIFIED_SOURCE('','',#676,
 .NOT_KNOWN.);
#675=PRODUCT_RELATED_PRODUCT_CATEGORY('','',(#676));
#676=PRODUCT('Rohrnippel K.3_4x110','Rohrnippel K.3_4x110',
'Rohrnippel K.3_4x110',(#678));
#677=PRODUCT_CATEGORY('','');
#678=PRODUCT_CONTEXT('',#680,'mechanical');
#679=APPLICATION_PROTOCOL_DEFINITION('international standard',
'automotive_design',2010,#680);
#680=APPLICATION_CONTEXT(
'core data for automotive mechanical design processes');
ENDSEC;
END-ISO-10303-21;
