ISO-10303-21;
HEADER;
/* Generated by software containing ST-Developer
 * from STEP Tools, Inc. (www.steptools.com) 
 */
/* OPTION: strings as raw bytes, not using required /X/ escapes */

FILE_DESCRIPTION(
/* description */ ('Unknown',
'CAx-IF Rec.Pracs.---Representation and Presentation of Product Manufa
cturing Information (PMI)---4.0---2014-10-13',
'CAx-IF Rec.Pracs.---3D Tessellated Geometry---0.4---2014-09-14','2;1'),

/* implementation_level */ '2;1');

FILE_NAME(
/* name */ '97708712-66-105',
/* time_stamp */ '2023-12-01T11:19:05+01:00',
/* author */ ('Unknown'),
/* organization */ ('Unknown'),
/* preprocessor_version */ 'ST-DEVELOPER v18.102',
/* originating_system */ 'Solid Edge',
/* authorisation */ 'Unknown');

FILE_SCHEMA (('AP242_MANAGED_MODEL_BASED_3D_ENGINEERING_MIM_LF { 1 0 10303 442 1 1 4 }'));
ENDSEC;

DATA;
#10=CONSTRUCTIVE_GEOMETRY_REPRESENTATION_RELATIONSHIP(
'supplemental geometry','',#199,#11);
#11=CONSTRUCTIVE_GEOMETRY_REPRESENTATION('supplemental geometry',(#221),
#299);
#12=SHAPE_REPRESENTATION_RELATIONSHIP('','',#199,#13);
#13=ADVANCED_BREP_SHAPE_REPRESENTATION('',(#197),#299);
#14=CONICAL_SURFACE('',#219,16.1245,0.785398163397448);
#15=CONICAL_SURFACE('',#220,16.6245,0.785398163397448);
#16=PLANE('',#204);
#17=PLANE('',#209);
#18=PLANE('',#214);
#19=PLANE('',#218);
#20=ORIENTED_EDGE('',*,*,#40,.T.);
#21=ORIENTED_EDGE('',*,*,#41,.F.);
#22=ORIENTED_EDGE('',*,*,#42,.T.);
#23=ORIENTED_EDGE('',*,*,#43,.F.);
#24=ORIENTED_EDGE('',*,*,#44,.F.);
#25=ORIENTED_EDGE('',*,*,#43,.T.);
#26=ORIENTED_EDGE('',*,*,#45,.T.);
#27=ORIENTED_EDGE('',*,*,#44,.T.);
#28=ORIENTED_EDGE('',*,*,#46,.T.);
#29=ORIENTED_EDGE('',*,*,#47,.F.);
#30=ORIENTED_EDGE('',*,*,#47,.T.);
#31=ORIENTED_EDGE('',*,*,#40,.F.);
#32=ORIENTED_EDGE('',*,*,#48,.T.);
#33=ORIENTED_EDGE('',*,*,#49,.T.);
#34=ORIENTED_EDGE('',*,*,#49,.F.);
#35=ORIENTED_EDGE('',*,*,#41,.T.);
#36=ORIENTED_EDGE('',*,*,#48,.F.);
#37=ORIENTED_EDGE('',*,*,#42,.F.);
#38=ORIENTED_EDGE('',*,*,#45,.F.);
#39=ORIENTED_EDGE('',*,*,#46,.F.);
#40=EDGE_CURVE('',#50,#50,#60,.T.);
#41=EDGE_CURVE('',#51,#51,#61,.T.);
#42=EDGE_CURVE('',#52,#52,#62,.T.);
#43=EDGE_CURVE('',#53,#53,#63,.T.);
#44=EDGE_CURVE('',#54,#54,#64,.T.);
#45=EDGE_CURVE('',#55,#55,#65,.F.);
#46=EDGE_CURVE('',#56,#56,#66,.T.);
#47=EDGE_CURVE('',#57,#57,#67,.T.);
#48=EDGE_CURVE('',#58,#58,#68,.F.);
#49=EDGE_CURVE('',#59,#59,#69,.T.);
#50=VERTEX_POINT('',#269);
#51=VERTEX_POINT('',#271);
#52=VERTEX_POINT('',#274);
#53=VERTEX_POINT('',#276);
#54=VERTEX_POINT('',#279);
#55=VERTEX_POINT('',#282);
#56=VERTEX_POINT('',#285);
#57=VERTEX_POINT('',#287);
#58=VERTEX_POINT('',#291);
#59=VERTEX_POINT('',#293);
#60=CIRCLE('',#202,16.7);
#61=CIRCLE('',#203,16.7);
#62=CIRCLE('',#205,16.1245);
#63=CIRCLE('',#206,12.6);
#64=CIRCLE('',#208,12.6);
#65=CIRCLE('',#210,16.1245);
#66=CIRCLE('',#212,16.6245);
#67=CIRCLE('',#213,16.6245);
#68=CIRCLE('',#216,16.6245);
#69=CIRCLE('',#217,16.6245);
#70=EDGE_LOOP('',(#20));
#71=EDGE_LOOP('',(#21));
#72=EDGE_LOOP('',(#22));
#73=EDGE_LOOP('',(#23));
#74=EDGE_LOOP('',(#24));
#75=EDGE_LOOP('',(#25));
#76=EDGE_LOOP('',(#26));
#77=EDGE_LOOP('',(#27));
#78=EDGE_LOOP('',(#28));
#79=EDGE_LOOP('',(#29));
#80=EDGE_LOOP('',(#30));
#81=EDGE_LOOP('',(#31));
#82=EDGE_LOOP('',(#32));
#83=EDGE_LOOP('',(#33));
#84=EDGE_LOOP('',(#34));
#85=EDGE_LOOP('',(#35));
#86=EDGE_LOOP('',(#36));
#87=EDGE_LOOP('',(#37));
#88=EDGE_LOOP('',(#38));
#89=EDGE_LOOP('',(#39));
#90=FACE_BOUND('',#70,.T.);
#91=FACE_BOUND('',#71,.T.);
#92=FACE_BOUND('',#72,.T.);
#93=FACE_BOUND('',#73,.T.);
#94=FACE_BOUND('',#74,.T.);
#95=FACE_BOUND('',#75,.T.);
#96=FACE_BOUND('',#76,.T.);
#97=FACE_BOUND('',#77,.T.);
#98=FACE_BOUND('',#78,.T.);
#99=FACE_BOUND('',#79,.T.);
#100=FACE_BOUND('',#80,.T.);
#101=FACE_BOUND('',#81,.T.);
#102=FACE_BOUND('',#82,.T.);
#103=FACE_BOUND('',#83,.T.);
#104=FACE_BOUND('',#84,.T.);
#105=FACE_BOUND('',#85,.T.);
#106=FACE_BOUND('',#86,.T.);
#107=FACE_BOUND('',#87,.T.);
#108=FACE_BOUND('',#88,.T.);
#109=FACE_BOUND('',#89,.T.);
#110=CYLINDRICAL_SURFACE('',#201,16.7);
#111=CYLINDRICAL_SURFACE('',#207,12.6);
#112=CYLINDRICAL_SURFACE('',#211,16.6245);
#113=CYLINDRICAL_SURFACE('',#215,16.6245);
#114=STYLED_ITEM('',(#124),#186);
#115=STYLED_ITEM('',(#125),#187);
#116=STYLED_ITEM('',(#126),#188);
#117=STYLED_ITEM('',(#127),#189);
#118=STYLED_ITEM('',(#128),#190);
#119=STYLED_ITEM('',(#129),#191);
#120=STYLED_ITEM('',(#130),#192);
#121=STYLED_ITEM('',(#131),#193);
#122=STYLED_ITEM('',(#132),#194);
#123=STYLED_ITEM('',(#133),#195);
#124=PRESENTATION_STYLE_ASSIGNMENT((#134));
#125=PRESENTATION_STYLE_ASSIGNMENT((#135));
#126=PRESENTATION_STYLE_ASSIGNMENT((#136));
#127=PRESENTATION_STYLE_ASSIGNMENT((#137));
#128=PRESENTATION_STYLE_ASSIGNMENT((#138));
#129=PRESENTATION_STYLE_ASSIGNMENT((#139));
#130=PRESENTATION_STYLE_ASSIGNMENT((#140));
#131=PRESENTATION_STYLE_ASSIGNMENT((#141));
#132=PRESENTATION_STYLE_ASSIGNMENT((#142));
#133=PRESENTATION_STYLE_ASSIGNMENT((#143));
#134=SURFACE_STYLE_USAGE(.BOTH.,#144);
#135=SURFACE_STYLE_USAGE(.BOTH.,#145);
#136=SURFACE_STYLE_USAGE(.BOTH.,#146);
#137=SURFACE_STYLE_USAGE(.BOTH.,#147);
#138=SURFACE_STYLE_USAGE(.BOTH.,#148);
#139=SURFACE_STYLE_USAGE(.BOTH.,#149);
#140=SURFACE_STYLE_USAGE(.BOTH.,#150);
#141=SURFACE_STYLE_USAGE(.BOTH.,#151);
#142=SURFACE_STYLE_USAGE(.BOTH.,#152);
#143=SURFACE_STYLE_USAGE(.BOTH.,#153);
#144=SURFACE_SIDE_STYLE('',(#154));
#145=SURFACE_SIDE_STYLE('',(#155));
#146=SURFACE_SIDE_STYLE('',(#156));
#147=SURFACE_SIDE_STYLE('',(#157));
#148=SURFACE_SIDE_STYLE('',(#158));
#149=SURFACE_SIDE_STYLE('',(#159));
#150=SURFACE_SIDE_STYLE('',(#160));
#151=SURFACE_SIDE_STYLE('',(#161));
#152=SURFACE_SIDE_STYLE('',(#162));
#153=SURFACE_SIDE_STYLE('',(#163));
#154=SURFACE_STYLE_FILL_AREA(#164);
#155=SURFACE_STYLE_FILL_AREA(#165);
#156=SURFACE_STYLE_FILL_AREA(#166);
#157=SURFACE_STYLE_FILL_AREA(#167);
#158=SURFACE_STYLE_FILL_AREA(#168);
#159=SURFACE_STYLE_FILL_AREA(#169);
#160=SURFACE_STYLE_FILL_AREA(#170);
#161=SURFACE_STYLE_FILL_AREA(#171);
#162=SURFACE_STYLE_FILL_AREA(#172);
#163=SURFACE_STYLE_FILL_AREA(#173);
#164=FILL_AREA_STYLE('',(#174));
#165=FILL_AREA_STYLE('',(#175));
#166=FILL_AREA_STYLE('',(#176));
#167=FILL_AREA_STYLE('',(#177));
#168=FILL_AREA_STYLE('',(#178));
#169=FILL_AREA_STYLE('',(#179));
#170=FILL_AREA_STYLE('',(#180));
#171=FILL_AREA_STYLE('',(#181));
#172=FILL_AREA_STYLE('',(#182));
#173=FILL_AREA_STYLE('',(#183));
#174=FILL_AREA_STYLE_COLOUR('',#184);
#175=FILL_AREA_STYLE_COLOUR('',#184);
#176=FILL_AREA_STYLE_COLOUR('',#184);
#177=FILL_AREA_STYLE_COLOUR('',#184);
#178=FILL_AREA_STYLE_COLOUR('',#185);
#179=FILL_AREA_STYLE_COLOUR('',#184);
#180=FILL_AREA_STYLE_COLOUR('',#185);
#181=FILL_AREA_STYLE_COLOUR('',#184);
#182=FILL_AREA_STYLE_COLOUR('',#184);
#183=FILL_AREA_STYLE_COLOUR('',#184);
#184=COLOUR_RGB('',0.752941191196442,0.752941191196442,0.752941191196442);
#185=COLOUR_RGB('',0.396078497171402,0.941176474094391,0.450980395078659);
#186=ADVANCED_FACE('',(#90,#91),#110,.T.);
#187=ADVANCED_FACE('',(#92,#93),#16,.T.);
#188=ADVANCED_FACE('',(#94,#95),#111,.F.);
#189=ADVANCED_FACE('',(#96,#97),#17,.F.);
#190=ADVANCED_FACE('',(#98,#99),#112,.T.);
#191=ADVANCED_FACE('',(#100,#101),#18,.F.);
#192=ADVANCED_FACE('',(#102,#103),#113,.T.);
#193=ADVANCED_FACE('',(#104,#105),#19,.T.);
#194=ADVANCED_FACE('',(#106,#107),#14,.T.);
#195=ADVANCED_FACE('',(#108,#109),#15,.T.);
#196=CLOSED_SHELL('',(#186,#187,#188,#189,#190,#191,#192,#193,#194,#195));
#197=MANIFOLD_SOLID_BREP('',#196);
#198=SHAPE_DEFINITION_REPRESENTATION(#304,#199);
#199=SHAPE_REPRESENTATION('97708712-1x105',(#200),#299);
#200=AXIS2_PLACEMENT_3D('',#266,#222,#223);
#201=AXIS2_PLACEMENT_3D('',#267,#224,#225);
#202=AXIS2_PLACEMENT_3D('',#268,#226,#227);
#203=AXIS2_PLACEMENT_3D('',#270,#228,#229);
#204=AXIS2_PLACEMENT_3D('',#272,#230,#231);
#205=AXIS2_PLACEMENT_3D('',#273,#232,#233);
#206=AXIS2_PLACEMENT_3D('',#275,#234,#235);
#207=AXIS2_PLACEMENT_3D('',#277,#236,#237);
#208=AXIS2_PLACEMENT_3D('',#278,#238,#239);
#209=AXIS2_PLACEMENT_3D('',#280,#240,#241);
#210=AXIS2_PLACEMENT_3D('',#281,#242,#243);
#211=AXIS2_PLACEMENT_3D('',#283,#244,#245);
#212=AXIS2_PLACEMENT_3D('',#284,#246,#247);
#213=AXIS2_PLACEMENT_3D('',#286,#248,#249);
#214=AXIS2_PLACEMENT_3D('',#288,#250,#251);
#215=AXIS2_PLACEMENT_3D('',#289,#252,#253);
#216=AXIS2_PLACEMENT_3D('',#290,#254,#255);
#217=AXIS2_PLACEMENT_3D('',#292,#256,#257);
#218=AXIS2_PLACEMENT_3D('',#294,#258,#259);
#219=AXIS2_PLACEMENT_3D('',#295,#260,#261);
#220=AXIS2_PLACEMENT_3D('',#296,#262,#263);
#221=AXIS2_PLACEMENT_3D('Basis',#297,#264,#265);
#222=DIRECTION('',(0.,0.,1.));
#223=DIRECTION('',(1.,0.,0.));
#224=DIRECTION('',(0.,1.,0.));
#225=DIRECTION('',(0.,0.,1.));
#226=DIRECTION('',(0.,1.,0.));
#227=DIRECTION('',(1.,0.,0.));
#228=DIRECTION('',(0.,1.,0.));
#229=DIRECTION('',(0.,0.,-1.));
#230=DIRECTION('',(0.,1.,0.));
#231=DIRECTION('',(0.,0.,1.));
#232=DIRECTION('',(0.,1.,0.));
#233=DIRECTION('',(0.,0.,1.));
#234=DIRECTION('',(0.,1.,0.));
#235=DIRECTION('',(1.,0.,0.));
#236=DIRECTION('',(0.,1.,0.));
#237=DIRECTION('',(0.,0.,1.));
#238=DIRECTION('',(0.,1.,0.));
#239=DIRECTION('',(1.,0.,0.));
#240=DIRECTION('',(0.,1.,0.));
#241=DIRECTION('',(0.,0.,1.));
#242=DIRECTION('',(0.,1.,0.));
#243=DIRECTION('',(0.,0.,1.));
#244=DIRECTION('',(0.,-1.,0.));
#245=DIRECTION('',(0.,0.,-1.));
#246=DIRECTION('',(0.,1.,0.));
#247=DIRECTION('',(0.,0.,1.));
#248=DIRECTION('',(0.,1.,0.));
#249=DIRECTION('',(1.,0.,0.));
#250=DIRECTION('',(0.,1.,0.));
#251=DIRECTION('',(0.,0.,1.));
#252=DIRECTION('',(0.,1.,0.));
#253=DIRECTION('',(0.,0.,1.));
#254=DIRECTION('',(0.,1.,0.));
#255=DIRECTION('',(0.,0.,1.));
#256=DIRECTION('',(0.,1.,0.));
#257=DIRECTION('',(0.,0.,-1.));
#258=DIRECTION('',(0.,1.,0.));
#259=DIRECTION('',(0.,0.,1.));
#260=DIRECTION('',(0.,-1.,0.));
#261=DIRECTION('',(0.,0.,-1.));
#262=DIRECTION('',(0.,1.,0.));
#263=DIRECTION('',(0.,0.,1.));
#264=DIRECTION('',(0.,0.,1.));
#265=DIRECTION('',(1.,0.,0.));
#266=CARTESIAN_POINT('',(0.,0.,0.));
#267=CARTESIAN_POINT('',(0.,-52.5,0.));
#268=CARTESIAN_POINT('',(0.,-34.5,0.));
#269=CARTESIAN_POINT('',(16.7,-34.5,0.));
#270=CARTESIAN_POINT('',(0.,34.5,0.));
#271=CARTESIAN_POINT('',(0.,34.5,-16.7));
#272=CARTESIAN_POINT('',(0.,52.5,0.));
#273=CARTESIAN_POINT('',(0.,52.5,0.));
#274=CARTESIAN_POINT('',(0.,52.5,16.1245));
#275=CARTESIAN_POINT('',(0.,52.5,0.));
#276=CARTESIAN_POINT('',(12.6,52.5,0.));
#277=CARTESIAN_POINT('',(0.,-52.5,0.));
#278=CARTESIAN_POINT('',(0.,-52.5,0.));
#279=CARTESIAN_POINT('',(12.6,-52.5,0.));
#280=CARTESIAN_POINT('',(0.,-52.5,0.));
#281=CARTESIAN_POINT('',(0.,-52.5,0.));
#282=CARTESIAN_POINT('',(0.,-52.5,16.1245));
#283=CARTESIAN_POINT('',(0.,-34.5,0.));
#284=CARTESIAN_POINT('',(0.,-52.,0.));
#285=CARTESIAN_POINT('',(0.,-52.,16.6245));
#286=CARTESIAN_POINT('',(0.,-34.5,0.));
#287=CARTESIAN_POINT('',(16.6245,-34.5,0.));
#288=CARTESIAN_POINT('',(0.,-34.5,0.));
#289=CARTESIAN_POINT('',(0.,34.5,0.));
#290=CARTESIAN_POINT('',(0.,52.,0.));
#291=CARTESIAN_POINT('',(0.,52.,16.6245));
#292=CARTESIAN_POINT('',(0.,34.5,0.));
#293=CARTESIAN_POINT('',(0.,34.5,-16.6245));
#294=CARTESIAN_POINT('',(0.,34.5,0.));
#295=CARTESIAN_POINT('',(0.,52.5,0.));
#296=CARTESIAN_POINT('',(0.,-52.,0.));
#297=CARTESIAN_POINT('',(0.,0.,0.));
#298=MECHANICAL_DESIGN_GEOMETRIC_PRESENTATION_REPRESENTATION('',(#114,#115,
#116,#117,#118,#119,#120,#121,#122,#123),#299);
#299=(
GEOMETRIC_REPRESENTATION_CONTEXT(3)
GLOBAL_UNCERTAINTY_ASSIGNED_CONTEXT((#300))
GLOBAL_UNIT_ASSIGNED_CONTEXT((#303,#302,#301))
REPRESENTATION_CONTEXT('97708712-1x105','TOP_LEVEL_ASSEMBLY_PART')
);
#300=UNCERTAINTY_MEASURE_WITH_UNIT(LENGTH_MEASURE(0.005),#303,
'DISTANCE_ACCURACY_VALUE','Maximum Tolerance applied to model');
#301=(
NAMED_UNIT(*)
SI_UNIT($,.STERADIAN.)
SOLID_ANGLE_UNIT()
);
#302=(
NAMED_UNIT(*)
PLANE_ANGLE_UNIT()
SI_UNIT($,.RADIAN.)
);
#303=(
LENGTH_UNIT()
NAMED_UNIT(*)
SI_UNIT(.MILLI.,.METRE.)
);
#304=PRODUCT_DEFINITION_SHAPE('','',#305);
#305=PRODUCT_DEFINITION('','',#307,#306);
#306=PRODUCT_DEFINITION_CONTEXT('',#313,'design');
#307=PRODUCT_DEFINITION_FORMATION_WITH_SPECIFIED_SOURCE('','',#309,
 .NOT_KNOWN.);
#308=PRODUCT_RELATED_PRODUCT_CATEGORY('','',(#309));
#309=PRODUCT('97708712-1x105','97708712-1x105','97708712-1x105',(#311));
#310=PRODUCT_CATEGORY('','');
#311=PRODUCT_CONTEXT('',#313,'mechanical');
#312=APPLICATION_PROTOCOL_DEFINITION('international standard',
'ap242_managed_model_based_3d_engineering',2011,#313);
#313=APPLICATION_CONTEXT('managed model based 3d engineering');
ENDSEC;
END-ISO-10303-21;
