ISO-10303-21;
HEADER;
/* Generated by software containing ST-Developer
 * from STEP Tools, Inc. (www.steptools.com) 
 */
/* OPTION: strings as raw bytes, not using required /X/ escapes */

FILE_DESCRIPTION(
/* description */ ('Unknown'),
/* implementation_level */ '2;1');

FILE_NAME(
/* name */ '98708712-88-150',
/* time_stamp */ '2023-05-08T13:19:11+02:00',
/* author */ ('Unknown'),
/* organization */ ('Unknown'),
/* preprocessor_version */ 'ST-DEVELOPER v18.102',
/* originating_system */ 'Solid Edge',
/* authorisation */ 'Unknown');

FILE_SCHEMA (('AUTOMOTIVE_DESIGN {1 0 10303 214 3 1 1}'));
ENDSEC;

DATA;
#10=PROPERTY_DEFINITION_REPRESENTATION(#14,#12);
#11=PROPERTY_DEFINITION_REPRESENTATION(#15,#13);
#12=REPRESENTATION('',(#16),#301);
#13=REPRESENTATION('',(#17),#301);
#14=PROPERTY_DEFINITION('pmi validation property','',#306);
#15=PROPERTY_DEFINITION('pmi validation property','',#306);
#16=VALUE_REPRESENTATION_ITEM('number of annotations',COUNT_MEASURE(0.));
#17=VALUE_REPRESENTATION_ITEM('number of views',COUNT_MEASURE(0.));
#18=SHAPE_REPRESENTATION_RELATIONSHIP('','',#205,#19);
#19=ADVANCED_BREP_SHAPE_REPRESENTATION('',(#203),#301);
#20=CONICAL_SURFACE('',#225,23.4015,0.785398163397448);
#21=CONICAL_SURFACE('',#226,23.9015,0.785398163397448);
#22=PLANE('',#210);
#23=PLANE('',#215);
#24=PLANE('',#220);
#25=PLANE('',#224);
#26=ORIENTED_EDGE('',*,*,#46,.T.);
#27=ORIENTED_EDGE('',*,*,#47,.F.);
#28=ORIENTED_EDGE('',*,*,#48,.T.);
#29=ORIENTED_EDGE('',*,*,#49,.F.);
#30=ORIENTED_EDGE('',*,*,#50,.F.);
#31=ORIENTED_EDGE('',*,*,#49,.T.);
#32=ORIENTED_EDGE('',*,*,#51,.T.);
#33=ORIENTED_EDGE('',*,*,#50,.T.);
#34=ORIENTED_EDGE('',*,*,#52,.T.);
#35=ORIENTED_EDGE('',*,*,#53,.F.);
#36=ORIENTED_EDGE('',*,*,#53,.T.);
#37=ORIENTED_EDGE('',*,*,#46,.F.);
#38=ORIENTED_EDGE('',*,*,#54,.T.);
#39=ORIENTED_EDGE('',*,*,#55,.T.);
#40=ORIENTED_EDGE('',*,*,#55,.F.);
#41=ORIENTED_EDGE('',*,*,#47,.T.);
#42=ORIENTED_EDGE('',*,*,#54,.F.);
#43=ORIENTED_EDGE('',*,*,#48,.F.);
#44=ORIENTED_EDGE('',*,*,#51,.F.);
#45=ORIENTED_EDGE('',*,*,#52,.F.);
#46=EDGE_CURVE('',#56,#56,#66,.T.);
#47=EDGE_CURVE('',#57,#57,#67,.T.);
#48=EDGE_CURVE('',#58,#58,#68,.T.);
#49=EDGE_CURVE('',#59,#59,#69,.T.);
#50=EDGE_CURVE('',#60,#60,#70,.T.);
#51=EDGE_CURVE('',#61,#61,#71,.F.);
#52=EDGE_CURVE('',#62,#62,#72,.T.);
#53=EDGE_CURVE('',#63,#63,#73,.T.);
#54=EDGE_CURVE('',#64,#64,#74,.F.);
#55=EDGE_CURVE('',#65,#65,#75,.T.);
#56=VERTEX_POINT('',#272);
#57=VERTEX_POINT('',#274);
#58=VERTEX_POINT('',#277);
#59=VERTEX_POINT('',#279);
#60=VERTEX_POINT('',#282);
#61=VERTEX_POINT('',#285);
#62=VERTEX_POINT('',#288);
#63=VERTEX_POINT('',#290);
#64=VERTEX_POINT('',#294);
#65=VERTEX_POINT('',#296);
#66=CIRCLE('',#208,24.);
#67=CIRCLE('',#209,24.);
#68=CIRCLE('',#211,23.4015);
#69=CIRCLE('',#212,19.5);
#70=CIRCLE('',#214,19.5);
#71=CIRCLE('',#216,23.4015);
#72=CIRCLE('',#218,23.9015);
#73=CIRCLE('',#219,23.9015);
#74=CIRCLE('',#222,23.9015);
#75=CIRCLE('',#223,23.9015);
#76=EDGE_LOOP('',(#26));
#77=EDGE_LOOP('',(#27));
#78=EDGE_LOOP('',(#28));
#79=EDGE_LOOP('',(#29));
#80=EDGE_LOOP('',(#30));
#81=EDGE_LOOP('',(#31));
#82=EDGE_LOOP('',(#32));
#83=EDGE_LOOP('',(#33));
#84=EDGE_LOOP('',(#34));
#85=EDGE_LOOP('',(#35));
#86=EDGE_LOOP('',(#36));
#87=EDGE_LOOP('',(#37));
#88=EDGE_LOOP('',(#38));
#89=EDGE_LOOP('',(#39));
#90=EDGE_LOOP('',(#40));
#91=EDGE_LOOP('',(#41));
#92=EDGE_LOOP('',(#42));
#93=EDGE_LOOP('',(#43));
#94=EDGE_LOOP('',(#44));
#95=EDGE_LOOP('',(#45));
#96=FACE_BOUND('',#76,.T.);
#97=FACE_BOUND('',#77,.T.);
#98=FACE_BOUND('',#78,.T.);
#99=FACE_BOUND('',#79,.T.);
#100=FACE_BOUND('',#80,.T.);
#101=FACE_BOUND('',#81,.T.);
#102=FACE_BOUND('',#82,.T.);
#103=FACE_BOUND('',#83,.T.);
#104=FACE_BOUND('',#84,.T.);
#105=FACE_BOUND('',#85,.T.);
#106=FACE_BOUND('',#86,.T.);
#107=FACE_BOUND('',#87,.T.);
#108=FACE_BOUND('',#88,.T.);
#109=FACE_BOUND('',#89,.T.);
#110=FACE_BOUND('',#90,.T.);
#111=FACE_BOUND('',#91,.T.);
#112=FACE_BOUND('',#92,.T.);
#113=FACE_BOUND('',#93,.T.);
#114=FACE_BOUND('',#94,.T.);
#115=FACE_BOUND('',#95,.T.);
#116=CYLINDRICAL_SURFACE('',#207,24.);
#117=CYLINDRICAL_SURFACE('',#213,19.5);
#118=CYLINDRICAL_SURFACE('',#217,23.9015);
#119=CYLINDRICAL_SURFACE('',#221,23.9015);
#120=STYLED_ITEM('',(#130),#192);
#121=STYLED_ITEM('',(#131),#193);
#122=STYLED_ITEM('',(#132),#194);
#123=STYLED_ITEM('',(#133),#195);
#124=STYLED_ITEM('',(#134),#196);
#125=STYLED_ITEM('',(#135),#197);
#126=STYLED_ITEM('',(#136),#198);
#127=STYLED_ITEM('',(#137),#199);
#128=STYLED_ITEM('',(#138),#200);
#129=STYLED_ITEM('',(#139),#201);
#130=PRESENTATION_STYLE_ASSIGNMENT((#140));
#131=PRESENTATION_STYLE_ASSIGNMENT((#141));
#132=PRESENTATION_STYLE_ASSIGNMENT((#142));
#133=PRESENTATION_STYLE_ASSIGNMENT((#143));
#134=PRESENTATION_STYLE_ASSIGNMENT((#144));
#135=PRESENTATION_STYLE_ASSIGNMENT((#145));
#136=PRESENTATION_STYLE_ASSIGNMENT((#146));
#137=PRESENTATION_STYLE_ASSIGNMENT((#147));
#138=PRESENTATION_STYLE_ASSIGNMENT((#148));
#139=PRESENTATION_STYLE_ASSIGNMENT((#149));
#140=SURFACE_STYLE_USAGE(.BOTH.,#150);
#141=SURFACE_STYLE_USAGE(.BOTH.,#151);
#142=SURFACE_STYLE_USAGE(.BOTH.,#152);
#143=SURFACE_STYLE_USAGE(.BOTH.,#153);
#144=SURFACE_STYLE_USAGE(.BOTH.,#154);
#145=SURFACE_STYLE_USAGE(.BOTH.,#155);
#146=SURFACE_STYLE_USAGE(.BOTH.,#156);
#147=SURFACE_STYLE_USAGE(.BOTH.,#157);
#148=SURFACE_STYLE_USAGE(.BOTH.,#158);
#149=SURFACE_STYLE_USAGE(.BOTH.,#159);
#150=SURFACE_SIDE_STYLE('',(#160));
#151=SURFACE_SIDE_STYLE('',(#161));
#152=SURFACE_SIDE_STYLE('',(#162));
#153=SURFACE_SIDE_STYLE('',(#163));
#154=SURFACE_SIDE_STYLE('',(#164));
#155=SURFACE_SIDE_STYLE('',(#165));
#156=SURFACE_SIDE_STYLE('',(#166));
#157=SURFACE_SIDE_STYLE('',(#167));
#158=SURFACE_SIDE_STYLE('',(#168));
#159=SURFACE_SIDE_STYLE('',(#169));
#160=SURFACE_STYLE_FILL_AREA(#170);
#161=SURFACE_STYLE_FILL_AREA(#171);
#162=SURFACE_STYLE_FILL_AREA(#172);
#163=SURFACE_STYLE_FILL_AREA(#173);
#164=SURFACE_STYLE_FILL_AREA(#174);
#165=SURFACE_STYLE_FILL_AREA(#175);
#166=SURFACE_STYLE_FILL_AREA(#176);
#167=SURFACE_STYLE_FILL_AREA(#177);
#168=SURFACE_STYLE_FILL_AREA(#178);
#169=SURFACE_STYLE_FILL_AREA(#179);
#170=FILL_AREA_STYLE('',(#180));
#171=FILL_AREA_STYLE('',(#181));
#172=FILL_AREA_STYLE('',(#182));
#173=FILL_AREA_STYLE('',(#183));
#174=FILL_AREA_STYLE('',(#184));
#175=FILL_AREA_STYLE('',(#185));
#176=FILL_AREA_STYLE('',(#186));
#177=FILL_AREA_STYLE('',(#187));
#178=FILL_AREA_STYLE('',(#188));
#179=FILL_AREA_STYLE('',(#189));
#180=FILL_AREA_STYLE_COLOUR('',#190);
#181=FILL_AREA_STYLE_COLOUR('',#190);
#182=FILL_AREA_STYLE_COLOUR('',#190);
#183=FILL_AREA_STYLE_COLOUR('',#190);
#184=FILL_AREA_STYLE_COLOUR('',#191);
#185=FILL_AREA_STYLE_COLOUR('',#190);
#186=FILL_AREA_STYLE_COLOUR('',#191);
#187=FILL_AREA_STYLE_COLOUR('',#190);
#188=FILL_AREA_STYLE_COLOUR('',#190);
#189=FILL_AREA_STYLE_COLOUR('',#190);
#190=COLOUR_RGB('',0.752941191196442,0.752941191196442,0.752941191196442);
#191=COLOUR_RGB('',0.396078497171402,0.941176474094391,0.450980395078659);
#192=ADVANCED_FACE('',(#96,#97),#116,.T.);
#193=ADVANCED_FACE('',(#98,#99),#22,.T.);
#194=ADVANCED_FACE('',(#100,#101),#117,.F.);
#195=ADVANCED_FACE('',(#102,#103),#23,.F.);
#196=ADVANCED_FACE('',(#104,#105),#118,.T.);
#197=ADVANCED_FACE('',(#106,#107),#24,.F.);
#198=ADVANCED_FACE('',(#108,#109),#119,.T.);
#199=ADVANCED_FACE('',(#110,#111),#25,.T.);
#200=ADVANCED_FACE('',(#112,#113),#20,.T.);
#201=ADVANCED_FACE('',(#114,#115),#21,.T.);
#202=CLOSED_SHELL('',(#192,#193,#194,#195,#196,#197,#198,#199,#200,#201));
#203=MANIFOLD_SOLID_BREP('',#202);
#204=SHAPE_DEFINITION_REPRESENTATION(#306,#205);
#205=SHAPE_REPRESENTATION('98708712-1 1_2x150',(#206),#301);
#206=AXIS2_PLACEMENT_3D('',#269,#227,#228);
#207=AXIS2_PLACEMENT_3D('',#270,#229,#230);
#208=AXIS2_PLACEMENT_3D('',#271,#231,#232);
#209=AXIS2_PLACEMENT_3D('',#273,#233,#234);
#210=AXIS2_PLACEMENT_3D('',#275,#235,#236);
#211=AXIS2_PLACEMENT_3D('',#276,#237,#238);
#212=AXIS2_PLACEMENT_3D('',#278,#239,#240);
#213=AXIS2_PLACEMENT_3D('',#280,#241,#242);
#214=AXIS2_PLACEMENT_3D('',#281,#243,#244);
#215=AXIS2_PLACEMENT_3D('',#283,#245,#246);
#216=AXIS2_PLACEMENT_3D('',#284,#247,#248);
#217=AXIS2_PLACEMENT_3D('',#286,#249,#250);
#218=AXIS2_PLACEMENT_3D('',#287,#251,#252);
#219=AXIS2_PLACEMENT_3D('',#289,#253,#254);
#220=AXIS2_PLACEMENT_3D('',#291,#255,#256);
#221=AXIS2_PLACEMENT_3D('',#292,#257,#258);
#222=AXIS2_PLACEMENT_3D('',#293,#259,#260);
#223=AXIS2_PLACEMENT_3D('',#295,#261,#262);
#224=AXIS2_PLACEMENT_3D('',#297,#263,#264);
#225=AXIS2_PLACEMENT_3D('',#298,#265,#266);
#226=AXIS2_PLACEMENT_3D('',#299,#267,#268);
#227=DIRECTION('',(0.,0.,1.));
#228=DIRECTION('',(1.,0.,0.));
#229=DIRECTION('',(0.,1.,0.));
#230=DIRECTION('',(0.,0.,1.));
#231=DIRECTION('',(0.,1.,0.));
#232=DIRECTION('',(1.,0.,0.));
#233=DIRECTION('',(0.,1.,0.));
#234=DIRECTION('',(0.,0.,-1.));
#235=DIRECTION('',(0.,1.,0.));
#236=DIRECTION('',(0.,0.,1.));
#237=DIRECTION('',(0.,1.,0.));
#238=DIRECTION('',(0.,0.,1.));
#239=DIRECTION('',(0.,1.,0.));
#240=DIRECTION('',(1.,0.,0.));
#241=DIRECTION('',(0.,1.,0.));
#242=DIRECTION('',(0.,0.,1.));
#243=DIRECTION('',(0.,1.,0.));
#244=DIRECTION('',(1.,0.,0.));
#245=DIRECTION('',(0.,1.,0.));
#246=DIRECTION('',(0.,0.,1.));
#247=DIRECTION('',(0.,1.,0.));
#248=DIRECTION('',(0.,0.,1.));
#249=DIRECTION('',(0.,-1.,0.));
#250=DIRECTION('',(0.,0.,-1.));
#251=DIRECTION('',(0.,1.,0.));
#252=DIRECTION('',(0.,0.,1.));
#253=DIRECTION('',(0.,1.,0.));
#254=DIRECTION('',(1.,0.,0.));
#255=DIRECTION('',(0.,1.,0.));
#256=DIRECTION('',(0.,0.,1.));
#257=DIRECTION('',(0.,1.,0.));
#258=DIRECTION('',(0.,0.,1.));
#259=DIRECTION('',(0.,1.,0.));
#260=DIRECTION('',(0.,0.,1.));
#261=DIRECTION('',(0.,1.,0.));
#262=DIRECTION('',(0.,0.,-1.));
#263=DIRECTION('',(0.,1.,0.));
#264=DIRECTION('',(0.,0.,1.));
#265=DIRECTION('',(0.,-1.,0.));
#266=DIRECTION('',(0.,0.,-1.));
#267=DIRECTION('',(0.,1.,0.));
#268=DIRECTION('',(0.,0.,1.));
#269=CARTESIAN_POINT('',(0.,0.,0.));
#270=CARTESIAN_POINT('',(0.,-75.,0.));
#271=CARTESIAN_POINT('',(0.,-55.,0.));
#272=CARTESIAN_POINT('',(24.,-55.,0.));
#273=CARTESIAN_POINT('',(0.,55.,0.));
#274=CARTESIAN_POINT('',(0.,55.,-24.));
#275=CARTESIAN_POINT('',(0.,75.,0.));
#276=CARTESIAN_POINT('',(0.,75.,0.));
#277=CARTESIAN_POINT('',(0.,75.,23.4015));
#278=CARTESIAN_POINT('',(0.,75.,0.));
#279=CARTESIAN_POINT('',(19.5,75.,0.));
#280=CARTESIAN_POINT('',(0.,-75.,0.));
#281=CARTESIAN_POINT('',(0.,-75.,0.));
#282=CARTESIAN_POINT('',(19.5,-75.,0.));
#283=CARTESIAN_POINT('',(0.,-75.,0.));
#284=CARTESIAN_POINT('',(0.,-75.,0.));
#285=CARTESIAN_POINT('',(0.,-75.,23.4015));
#286=CARTESIAN_POINT('',(0.,-55.,0.));
#287=CARTESIAN_POINT('',(0.,-74.5,0.));
#288=CARTESIAN_POINT('',(0.,-74.5,23.9015));
#289=CARTESIAN_POINT('',(0.,-55.,0.));
#290=CARTESIAN_POINT('',(23.9015,-55.,0.));
#291=CARTESIAN_POINT('',(0.,-55.,0.));
#292=CARTESIAN_POINT('',(0.,55.,0.));
#293=CARTESIAN_POINT('',(0.,74.5,0.));
#294=CARTESIAN_POINT('',(0.,74.5,23.9015));
#295=CARTESIAN_POINT('',(0.,55.,0.));
#296=CARTESIAN_POINT('',(0.,55.,-23.9015));
#297=CARTESIAN_POINT('',(0.,55.,0.));
#298=CARTESIAN_POINT('',(0.,75.,0.));
#299=CARTESIAN_POINT('',(0.,-74.5,0.));
#300=MECHANICAL_DESIGN_GEOMETRIC_PRESENTATION_REPRESENTATION('',(#120,#121,
#122,#123,#124,#125,#126,#127,#128,#129),#301);
#301=(
GEOMETRIC_REPRESENTATION_CONTEXT(3)
GLOBAL_UNCERTAINTY_ASSIGNED_CONTEXT((#302))
GLOBAL_UNIT_ASSIGNED_CONTEXT((#305,#304,#303))
REPRESENTATION_CONTEXT('98708712-1 1_2x150','TOP_LEVEL_ASSEMBLY_PART')
);
#302=UNCERTAINTY_MEASURE_WITH_UNIT(LENGTH_MEASURE(0.005),#305,
'DISTANCE_ACCURACY_VALUE','Maximum Tolerance applied to model');
#303=(
NAMED_UNIT(*)
SI_UNIT($,.STERADIAN.)
SOLID_ANGLE_UNIT()
);
#304=(
NAMED_UNIT(*)
PLANE_ANGLE_UNIT()
SI_UNIT($,.RADIAN.)
);
#305=(
LENGTH_UNIT()
NAMED_UNIT(*)
SI_UNIT(.MILLI.,.METRE.)
);
#306=PRODUCT_DEFINITION_SHAPE('','',#307);
#307=PRODUCT_DEFINITION('','',#309,#308);
#308=PRODUCT_DEFINITION_CONTEXT('',#315,'design');
#309=PRODUCT_DEFINITION_FORMATION_WITH_SPECIFIED_SOURCE('','',#311,
 .NOT_KNOWN.);
#310=PRODUCT_RELATED_PRODUCT_CATEGORY('','',(#311));
#311=PRODUCT('98708712-1 1_2x150','98708712-1 1_2x150',
'98708712-1 1_2x150',(#313));
#312=PRODUCT_CATEGORY('','');
#313=PRODUCT_CONTEXT('',#315,'mechanical');
#314=APPLICATION_PROTOCOL_DEFINITION('international standard',
'automotive_design',2010,#315);
#315=APPLICATION_CONTEXT(
'core data for automotive mechanical design processes');
ENDSEC;
END-ISO-10303-21;
