ISO-10303-21;
HEADER;
/* Generated by software containing ST-Developer
 * from STEP Tools, Inc. (www.steptools.com) 
 */
/* OPTION: strings as raw bytes, not using required /X/ escapes */

FILE_DESCRIPTION(
/* description */ ('Unknown'),
/* implementation_level */ '2;1');

FILE_NAME(
/* name */ '98708712-55-110',
/* time_stamp */ '2023-05-08T11:18:44+02:00',
/* author */ ('Unknown'),
/* organization */ ('Unknown'),
/* preprocessor_version */ 'ST-DEVELOPER v18.102',
/* originating_system */ 'Solid Edge',
/* authorisation */ 'Unknown');

FILE_SCHEMA (('AUTOMOTIVE_DESIGN {1 0 10303 214 3 1 1}'));
ENDSEC;

DATA;
#10=PROPERTY_DEFINITION_REPRESENTATION(#14,#12);
#11=PROPERTY_DEFINITION_REPRESENTATION(#15,#13);
#12=REPRESENTATION('',(#16),#355);
#13=REPRESENTATION('',(#17),#355);
#14=PROPERTY_DEFINITION('pmi validation property','',#360);
#15=PROPERTY_DEFINITION('pmi validation property','',#360);
#16=VALUE_REPRESENTATION_ITEM('number of annotations',COUNT_MEASURE(0.));
#17=VALUE_REPRESENTATION_ITEM('number of views',COUNT_MEASURE(0.));
#18=SHAPE_REPRESENTATION_RELATIONSHIP('','',#241,#19);
#19=ADVANCED_BREP_SHAPE_REPRESENTATION('',(#239),#355);
#20=CONICAL_SURFACE('',#263,9.5,0.785398163397431);
#21=CONICAL_SURFACE('',#264,9.45,0.785398163397362);
#22=CONICAL_SURFACE('',#265,12.7205,0.785398163397448);
#23=CONICAL_SURFACE('',#266,13.2205,0.785398163397448);
#24=PLANE('',#246);
#25=PLANE('',#252);
#26=PLANE('',#258);
#27=PLANE('',#262);
#28=ORIENTED_EDGE('',*,*,#52,.T.);
#29=ORIENTED_EDGE('',*,*,#53,.F.);
#30=ORIENTED_EDGE('',*,*,#54,.T.);
#31=ORIENTED_EDGE('',*,*,#55,.T.);
#32=ORIENTED_EDGE('',*,*,#56,.T.);
#33=ORIENTED_EDGE('',*,*,#57,.T.);
#34=ORIENTED_EDGE('',*,*,#58,.T.);
#35=ORIENTED_EDGE('',*,*,#59,.T.);
#36=ORIENTED_EDGE('',*,*,#60,.T.);
#37=ORIENTED_EDGE('',*,*,#61,.F.);
#38=ORIENTED_EDGE('',*,*,#61,.T.);
#39=ORIENTED_EDGE('',*,*,#52,.F.);
#40=ORIENTED_EDGE('',*,*,#62,.T.);
#41=ORIENTED_EDGE('',*,*,#63,.T.);
#42=ORIENTED_EDGE('',*,*,#63,.F.);
#43=ORIENTED_EDGE('',*,*,#53,.T.);
#44=ORIENTED_EDGE('',*,*,#56,.F.);
#45=ORIENTED_EDGE('',*,*,#59,.F.);
#46=ORIENTED_EDGE('',*,*,#55,.F.);
#47=ORIENTED_EDGE('',*,*,#57,.F.);
#48=ORIENTED_EDGE('',*,*,#62,.F.);
#49=ORIENTED_EDGE('',*,*,#54,.F.);
#50=ORIENTED_EDGE('',*,*,#58,.F.);
#51=ORIENTED_EDGE('',*,*,#60,.F.);
#52=EDGE_CURVE('',#64,#64,#76,.T.);
#53=EDGE_CURVE('',#65,#65,#77,.T.);
#54=EDGE_CURVE('',#66,#66,#78,.T.);
#55=EDGE_CURVE('',#67,#67,#79,.F.);
#56=EDGE_CURVE('',#68,#68,#80,.F.);
#57=EDGE_CURVE('',#69,#69,#81,.T.);
#58=EDGE_CURVE('',#70,#70,#82,.F.);
#59=EDGE_CURVE('',#71,#71,#83,.T.);
#60=EDGE_CURVE('',#72,#72,#84,.T.);
#61=EDGE_CURVE('',#73,#73,#85,.T.);
#62=EDGE_CURVE('',#74,#74,#86,.F.);
#63=EDGE_CURVE('',#75,#75,#87,.T.);
#64=VERTEX_POINT('',#320);
#65=VERTEX_POINT('',#322);
#66=VERTEX_POINT('',#325);
#67=VERTEX_POINT('',#327);
#68=VERTEX_POINT('',#330);
#69=VERTEX_POINT('',#332);
#70=VERTEX_POINT('',#335);
#71=VERTEX_POINT('',#337);
#72=VERTEX_POINT('',#340);
#73=VERTEX_POINT('',#342);
#74=VERTEX_POINT('',#346);
#75=VERTEX_POINT('',#348);
#76=CIRCLE('',#244,13.45);
#77=CIRCLE('',#245,13.45);
#78=CIRCLE('',#247,12.7205);
#79=CIRCLE('',#248,9.5);
#80=CIRCLE('',#250,9.45);
#81=CIRCLE('',#251,9.45);
#82=CIRCLE('',#253,12.7205);
#83=CIRCLE('',#254,9.5);
#84=CIRCLE('',#256,13.2205);
#85=CIRCLE('',#257,13.2205);
#86=CIRCLE('',#260,13.2205);
#87=CIRCLE('',#261,13.2205);
#88=EDGE_LOOP('',(#28));
#89=EDGE_LOOP('',(#29));
#90=EDGE_LOOP('',(#30));
#91=EDGE_LOOP('',(#31));
#92=EDGE_LOOP('',(#32));
#93=EDGE_LOOP('',(#33));
#94=EDGE_LOOP('',(#34));
#95=EDGE_LOOP('',(#35));
#96=EDGE_LOOP('',(#36));
#97=EDGE_LOOP('',(#37));
#98=EDGE_LOOP('',(#38));
#99=EDGE_LOOP('',(#39));
#100=EDGE_LOOP('',(#40));
#101=EDGE_LOOP('',(#41));
#102=EDGE_LOOP('',(#42));
#103=EDGE_LOOP('',(#43));
#104=EDGE_LOOP('',(#44));
#105=EDGE_LOOP('',(#45));
#106=EDGE_LOOP('',(#46));
#107=EDGE_LOOP('',(#47));
#108=EDGE_LOOP('',(#48));
#109=EDGE_LOOP('',(#49));
#110=EDGE_LOOP('',(#50));
#111=EDGE_LOOP('',(#51));
#112=FACE_BOUND('',#88,.T.);
#113=FACE_BOUND('',#89,.T.);
#114=FACE_BOUND('',#90,.T.);
#115=FACE_BOUND('',#91,.T.);
#116=FACE_BOUND('',#92,.T.);
#117=FACE_BOUND('',#93,.T.);
#118=FACE_BOUND('',#94,.T.);
#119=FACE_BOUND('',#95,.T.);
#120=FACE_BOUND('',#96,.T.);
#121=FACE_BOUND('',#97,.T.);
#122=FACE_BOUND('',#98,.T.);
#123=FACE_BOUND('',#99,.T.);
#124=FACE_BOUND('',#100,.T.);
#125=FACE_BOUND('',#101,.T.);
#126=FACE_BOUND('',#102,.T.);
#127=FACE_BOUND('',#103,.T.);
#128=FACE_BOUND('',#104,.T.);
#129=FACE_BOUND('',#105,.T.);
#130=FACE_BOUND('',#106,.T.);
#131=FACE_BOUND('',#107,.T.);
#132=FACE_BOUND('',#108,.T.);
#133=FACE_BOUND('',#109,.T.);
#134=FACE_BOUND('',#110,.T.);
#135=FACE_BOUND('',#111,.T.);
#136=CYLINDRICAL_SURFACE('',#243,13.45);
#137=CYLINDRICAL_SURFACE('',#249,9.45);
#138=CYLINDRICAL_SURFACE('',#255,13.2205);
#139=CYLINDRICAL_SURFACE('',#259,13.2205);
#140=STYLED_ITEM('',(#152),#226);
#141=STYLED_ITEM('',(#153),#227);
#142=STYLED_ITEM('',(#154),#228);
#143=STYLED_ITEM('',(#155),#229);
#144=STYLED_ITEM('',(#156),#230);
#145=STYLED_ITEM('',(#157),#231);
#146=STYLED_ITEM('',(#158),#232);
#147=STYLED_ITEM('',(#159),#233);
#148=STYLED_ITEM('',(#160),#234);
#149=STYLED_ITEM('',(#161),#235);
#150=STYLED_ITEM('',(#162),#236);
#151=STYLED_ITEM('',(#163),#237);
#152=PRESENTATION_STYLE_ASSIGNMENT((#164));
#153=PRESENTATION_STYLE_ASSIGNMENT((#165));
#154=PRESENTATION_STYLE_ASSIGNMENT((#166));
#155=PRESENTATION_STYLE_ASSIGNMENT((#167));
#156=PRESENTATION_STYLE_ASSIGNMENT((#168));
#157=PRESENTATION_STYLE_ASSIGNMENT((#169));
#158=PRESENTATION_STYLE_ASSIGNMENT((#170));
#159=PRESENTATION_STYLE_ASSIGNMENT((#171));
#160=PRESENTATION_STYLE_ASSIGNMENT((#172));
#161=PRESENTATION_STYLE_ASSIGNMENT((#173));
#162=PRESENTATION_STYLE_ASSIGNMENT((#174));
#163=PRESENTATION_STYLE_ASSIGNMENT((#175));
#164=SURFACE_STYLE_USAGE(.BOTH.,#176);
#165=SURFACE_STYLE_USAGE(.BOTH.,#177);
#166=SURFACE_STYLE_USAGE(.BOTH.,#178);
#167=SURFACE_STYLE_USAGE(.BOTH.,#179);
#168=SURFACE_STYLE_USAGE(.BOTH.,#180);
#169=SURFACE_STYLE_USAGE(.BOTH.,#181);
#170=SURFACE_STYLE_USAGE(.BOTH.,#182);
#171=SURFACE_STYLE_USAGE(.BOTH.,#183);
#172=SURFACE_STYLE_USAGE(.BOTH.,#184);
#173=SURFACE_STYLE_USAGE(.BOTH.,#185);
#174=SURFACE_STYLE_USAGE(.BOTH.,#186);
#175=SURFACE_STYLE_USAGE(.BOTH.,#187);
#176=SURFACE_SIDE_STYLE('',(#188));
#177=SURFACE_SIDE_STYLE('',(#189));
#178=SURFACE_SIDE_STYLE('',(#190));
#179=SURFACE_SIDE_STYLE('',(#191));
#180=SURFACE_SIDE_STYLE('',(#192));
#181=SURFACE_SIDE_STYLE('',(#193));
#182=SURFACE_SIDE_STYLE('',(#194));
#183=SURFACE_SIDE_STYLE('',(#195));
#184=SURFACE_SIDE_STYLE('',(#196));
#185=SURFACE_SIDE_STYLE('',(#197));
#186=SURFACE_SIDE_STYLE('',(#198));
#187=SURFACE_SIDE_STYLE('',(#199));
#188=SURFACE_STYLE_FILL_AREA(#200);
#189=SURFACE_STYLE_FILL_AREA(#201);
#190=SURFACE_STYLE_FILL_AREA(#202);
#191=SURFACE_STYLE_FILL_AREA(#203);
#192=SURFACE_STYLE_FILL_AREA(#204);
#193=SURFACE_STYLE_FILL_AREA(#205);
#194=SURFACE_STYLE_FILL_AREA(#206);
#195=SURFACE_STYLE_FILL_AREA(#207);
#196=SURFACE_STYLE_FILL_AREA(#208);
#197=SURFACE_STYLE_FILL_AREA(#209);
#198=SURFACE_STYLE_FILL_AREA(#210);
#199=SURFACE_STYLE_FILL_AREA(#211);
#200=FILL_AREA_STYLE('',(#212));
#201=FILL_AREA_STYLE('',(#213));
#202=FILL_AREA_STYLE('',(#214));
#203=FILL_AREA_STYLE('',(#215));
#204=FILL_AREA_STYLE('',(#216));
#205=FILL_AREA_STYLE('',(#217));
#206=FILL_AREA_STYLE('',(#218));
#207=FILL_AREA_STYLE('',(#219));
#208=FILL_AREA_STYLE('',(#220));
#209=FILL_AREA_STYLE('',(#221));
#210=FILL_AREA_STYLE('',(#222));
#211=FILL_AREA_STYLE('',(#223));
#212=FILL_AREA_STYLE_COLOUR('',#224);
#213=FILL_AREA_STYLE_COLOUR('',#224);
#214=FILL_AREA_STYLE_COLOUR('',#224);
#215=FILL_AREA_STYLE_COLOUR('',#224);
#216=FILL_AREA_STYLE_COLOUR('',#225);
#217=FILL_AREA_STYLE_COLOUR('',#224);
#218=FILL_AREA_STYLE_COLOUR('',#225);
#219=FILL_AREA_STYLE_COLOUR('',#224);
#220=FILL_AREA_STYLE_COLOUR('',#224);
#221=FILL_AREA_STYLE_COLOUR('',#224);
#222=FILL_AREA_STYLE_COLOUR('',#224);
#223=FILL_AREA_STYLE_COLOUR('',#224);
#224=COLOUR_RGB('',0.752941191196442,0.752941191196442,0.752941191196442);
#225=COLOUR_RGB('',0.396078497171402,0.941176474094391,0.450980395078659);
#226=ADVANCED_FACE('',(#112,#113),#136,.T.);
#227=ADVANCED_FACE('',(#114,#115),#24,.T.);
#228=ADVANCED_FACE('',(#116,#117),#137,.F.);
#229=ADVANCED_FACE('',(#118,#119),#25,.F.);
#230=ADVANCED_FACE('',(#120,#121),#138,.T.);
#231=ADVANCED_FACE('',(#122,#123),#26,.F.);
#232=ADVANCED_FACE('',(#124,#125),#139,.T.);
#233=ADVANCED_FACE('',(#126,#127),#27,.T.);
#234=ADVANCED_FACE('',(#128,#129),#20,.F.);
#235=ADVANCED_FACE('',(#130,#131),#21,.F.);
#236=ADVANCED_FACE('',(#132,#133),#22,.T.);
#237=ADVANCED_FACE('',(#134,#135),#23,.T.);
#238=CLOSED_SHELL('',(#226,#227,#228,#229,#230,#231,#232,#233,#234,#235,
#236,#237));
#239=MANIFOLD_SOLID_BREP('',#238);
#240=SHAPE_DEFINITION_REPRESENTATION(#360,#241);
#241=SHAPE_REPRESENTATION('98708712-3_4x110',(#242),#355);
#242=AXIS2_PLACEMENT_3D('',#317,#267,#268);
#243=AXIS2_PLACEMENT_3D('',#318,#269,#270);
#244=AXIS2_PLACEMENT_3D('',#319,#271,#272);
#245=AXIS2_PLACEMENT_3D('',#321,#273,#274);
#246=AXIS2_PLACEMENT_3D('',#323,#275,#276);
#247=AXIS2_PLACEMENT_3D('',#324,#277,#278);
#248=AXIS2_PLACEMENT_3D('',#326,#279,#280);
#249=AXIS2_PLACEMENT_3D('',#328,#281,#282);
#250=AXIS2_PLACEMENT_3D('',#329,#283,#284);
#251=AXIS2_PLACEMENT_3D('',#331,#285,#286);
#252=AXIS2_PLACEMENT_3D('',#333,#287,#288);
#253=AXIS2_PLACEMENT_3D('',#334,#289,#290);
#254=AXIS2_PLACEMENT_3D('',#336,#291,#292);
#255=AXIS2_PLACEMENT_3D('',#338,#293,#294);
#256=AXIS2_PLACEMENT_3D('',#339,#295,#296);
#257=AXIS2_PLACEMENT_3D('',#341,#297,#298);
#258=AXIS2_PLACEMENT_3D('',#343,#299,#300);
#259=AXIS2_PLACEMENT_3D('',#344,#301,#302);
#260=AXIS2_PLACEMENT_3D('',#345,#303,#304);
#261=AXIS2_PLACEMENT_3D('',#347,#305,#306);
#262=AXIS2_PLACEMENT_3D('',#349,#307,#308);
#263=AXIS2_PLACEMENT_3D('',#350,#309,#310);
#264=AXIS2_PLACEMENT_3D('',#351,#311,#312);
#265=AXIS2_PLACEMENT_3D('',#352,#313,#314);
#266=AXIS2_PLACEMENT_3D('',#353,#315,#316);
#267=DIRECTION('',(0.,0.,1.));
#268=DIRECTION('',(1.,0.,0.));
#269=DIRECTION('',(0.,1.,0.));
#270=DIRECTION('',(0.,0.,1.));
#271=DIRECTION('',(0.,1.,0.));
#272=DIRECTION('',(1.,0.,0.));
#273=DIRECTION('',(0.,1.,0.));
#274=DIRECTION('',(0.,0.,-1.));
#275=DIRECTION('',(0.,1.,0.));
#276=DIRECTION('',(0.,0.,1.));
#277=DIRECTION('',(0.,1.,0.));
#278=DIRECTION('',(0.,0.,1.));
#279=DIRECTION('',(0.,1.,0.));
#280=DIRECTION('',(0.,0.,1.));
#281=DIRECTION('',(0.,1.,0.));
#282=DIRECTION('',(0.,0.,1.));
#283=DIRECTION('',(0.,1.,0.));
#284=DIRECTION('',(0.,0.,1.));
#285=DIRECTION('',(0.,1.,0.));
#286=DIRECTION('',(0.,0.,1.));
#287=DIRECTION('',(0.,1.,0.));
#288=DIRECTION('',(0.,0.,1.));
#289=DIRECTION('',(0.,1.,0.));
#290=DIRECTION('',(0.,0.,1.));
#291=DIRECTION('',(0.,1.,0.));
#292=DIRECTION('',(0.,0.,1.));
#293=DIRECTION('',(0.,-1.,0.));
#294=DIRECTION('',(0.,0.,-1.));
#295=DIRECTION('',(0.,1.,0.));
#296=DIRECTION('',(0.,0.,1.));
#297=DIRECTION('',(0.,1.,0.));
#298=DIRECTION('',(1.,0.,0.));
#299=DIRECTION('',(0.,1.,0.));
#300=DIRECTION('',(0.,0.,1.));
#301=DIRECTION('',(0.,1.,0.));
#302=DIRECTION('',(0.,0.,1.));
#303=DIRECTION('',(0.,1.,0.));
#304=DIRECTION('',(0.,0.,1.));
#305=DIRECTION('',(0.,1.,0.));
#306=DIRECTION('',(0.,0.,-1.));
#307=DIRECTION('',(0.,1.,0.));
#308=DIRECTION('',(0.,0.,1.));
#309=DIRECTION('',(0.,-1.,0.));
#310=DIRECTION('',(0.,0.,-1.));
#311=DIRECTION('',(0.,1.,0.));
#312=DIRECTION('',(0.,0.,1.));
#313=DIRECTION('',(0.,-1.,0.));
#314=DIRECTION('',(0.,0.,-1.));
#315=DIRECTION('',(0.,1.,0.));
#316=DIRECTION('',(0.,0.,1.));
#317=CARTESIAN_POINT('',(0.,0.,0.));
#318=CARTESIAN_POINT('',(0.,-55.,0.));
#319=CARTESIAN_POINT('',(0.,-38.,0.));
#320=CARTESIAN_POINT('',(13.45,-38.,0.));
#321=CARTESIAN_POINT('',(0.,38.,0.));
#322=CARTESIAN_POINT('',(0.,38.,-13.45));
#323=CARTESIAN_POINT('',(0.,55.,0.));
#324=CARTESIAN_POINT('',(0.,55.,0.));
#325=CARTESIAN_POINT('',(0.,55.,12.7205));
#326=CARTESIAN_POINT('',(0.,55.,0.));
#327=CARTESIAN_POINT('',(0.,55.,9.5));
#328=CARTESIAN_POINT('',(0.,-55.,0.));
#329=CARTESIAN_POINT('',(0.,-54.95,0.));
#330=CARTESIAN_POINT('',(0.,-54.95,9.45));
#331=CARTESIAN_POINT('',(0.,54.95,0.));
#332=CARTESIAN_POINT('',(0.,54.95,9.45));
#333=CARTESIAN_POINT('',(0.,-55.,0.));
#334=CARTESIAN_POINT('',(0.,-55.,0.));
#335=CARTESIAN_POINT('',(0.,-55.,12.7205));
#336=CARTESIAN_POINT('',(0.,-55.,0.));
#337=CARTESIAN_POINT('',(0.,-55.,9.5));
#338=CARTESIAN_POINT('',(0.,-38.,0.));
#339=CARTESIAN_POINT('',(0.,-54.5,0.));
#340=CARTESIAN_POINT('',(0.,-54.5,13.2205));
#341=CARTESIAN_POINT('',(0.,-38.,0.));
#342=CARTESIAN_POINT('',(13.2205,-38.,0.));
#343=CARTESIAN_POINT('',(0.,-38.,0.));
#344=CARTESIAN_POINT('',(0.,38.,0.));
#345=CARTESIAN_POINT('',(0.,54.5,0.));
#346=CARTESIAN_POINT('',(0.,54.5,13.2205));
#347=CARTESIAN_POINT('',(0.,38.,0.));
#348=CARTESIAN_POINT('',(0.,38.,-13.2205));
#349=CARTESIAN_POINT('',(0.,38.,0.));
#350=CARTESIAN_POINT('',(0.,-55.,0.));
#351=CARTESIAN_POINT('',(0.,54.95,0.));
#352=CARTESIAN_POINT('',(0.,55.,0.));
#353=CARTESIAN_POINT('',(0.,-54.5,0.));
#354=MECHANICAL_DESIGN_GEOMETRIC_PRESENTATION_REPRESENTATION('',(#140,#141,
#142,#143,#144,#145,#146,#147,#148,#149,#150,#151),#355);
#355=(
GEOMETRIC_REPRESENTATION_CONTEXT(3)
GLOBAL_UNCERTAINTY_ASSIGNED_CONTEXT((#356))
GLOBAL_UNIT_ASSIGNED_CONTEXT((#359,#358,#357))
REPRESENTATION_CONTEXT('98708712-3_4x110','TOP_LEVEL_ASSEMBLY_PART')
);
#356=UNCERTAINTY_MEASURE_WITH_UNIT(LENGTH_MEASURE(0.005),#359,
'DISTANCE_ACCURACY_VALUE','Maximum Tolerance applied to model');
#357=(
NAMED_UNIT(*)
SI_UNIT($,.STERADIAN.)
SOLID_ANGLE_UNIT()
);
#358=(
NAMED_UNIT(*)
PLANE_ANGLE_UNIT()
SI_UNIT($,.RADIAN.)
);
#359=(
LENGTH_UNIT()
NAMED_UNIT(*)
SI_UNIT(.MILLI.,.METRE.)
);
#360=PRODUCT_DEFINITION_SHAPE('','',#361);
#361=PRODUCT_DEFINITION('','',#363,#362);
#362=PRODUCT_DEFINITION_CONTEXT('',#369,'design');
#363=PRODUCT_DEFINITION_FORMATION_WITH_SPECIFIED_SOURCE('','',#365,
 .NOT_KNOWN.);
#364=PRODUCT_RELATED_PRODUCT_CATEGORY('','',(#365));
#365=PRODUCT('98708712-3_4x110','98708712-3_4x110','98708712-3_4x110',(#367));
#366=PRODUCT_CATEGORY('','');
#367=PRODUCT_CONTEXT('',#369,'mechanical');
#368=APPLICATION_PROTOCOL_DEFINITION('international standard',
'automotive_design',2010,#369);
#369=APPLICATION_CONTEXT(
'core data for automotive mechanical design processes');
ENDSEC;
END-ISO-10303-21;
